  0
SECTION
  2
HEADER
  9
$ACADVER
  1
AC1009
  9
$EXTMIN
 10
0.0
 20
0.0
 30
0.0
  9
$EXTMAX
 10
1000.0
 20
1000.0
 30
0.0
  9
$FILLMODE
 70
 0
  9
$SPLFRAME
 70
 1
  0
ENDSEC
  0
SECTION
  2
TABLES
  0
TABLE
  2
LAYER
 70
1
  0
LAYER
  2
0
 70
     0
 62
     7
  6
CONTINUOUS
  0
ENDTAB
  0
ENDSEC
  0
SECTION
  2
ENTITIES
  0
LINE
  8
0
 62
     0
 10
343.708
 20
115.342
 30
0.0
 11
344.1
 21
115.328
 31
0.0
  0
LINE
  8
0
 62
     0
 10
344.1
 20
115.328
 30
0.0
 11
344.49
 21
115.282
 31
0.0
  0
LINE
  8
0
 62
     0
 10
344.49
 20
115.282
 30
0.0
 11
344.875
 21
115.204
 31
0.0
  0
LINE
  8
0
 62
     0
 10
344.875
 20
115.204
 30
0.0
 11
345.252
 21
115.098
 31
0.0
  0
LINE
  8
0
 62
     0
 10
345.252
 20
115.098
 30
0.0
 11
345.62
 21
114.961
 31
0.0
  0
LINE
  8
0
 62
     0
 10
345.62
 20
114.961
 30
0.0
 11
345.977
 21
114.799
 31
0.0
  0
LINE
  8
0
 62
     0
 10
345.977
 20
114.799
 30
0.0
 11
346.32
 21
114.607
 31
0.0
  0
LINE
  8
0
 62
     0
 10
346.32
 20
114.607
 30
0.0
 11
346.647
 21
114.388
 31
0.0
  0
LINE
  8
0
 62
     0
 10
346.647
 20
114.388
 30
0.0
 11
346.954
 21
114.146
 31
0.0
  0
LINE
  8
0
 62
     0
 10
346.954
 20
114.146
 30
0.0
 11
347.244
 21
113.878
 31
0.0
  0
LINE
  8
0
 62
     0
 10
347.244
 20
113.878
 30
0.0
 11
347.509
 21
113.592
 31
0.0
  0
LINE
  8
0
 62
     0
 10
347.509
 20
113.592
 30
0.0
 11
347.752
 21
113.283
 31
0.0
  0
LINE
  8
0
 62
     0
 10
347.752
 20
113.283
 30
0.0
 11
347.971
 21
112.955
 31
0.0
  0
LINE
  8
0
 62
     0
 10
347.971
 20
112.955
 30
0.0
 11
348.163
 21
112.612
 31
0.0
  0
LINE
  8
0
 62
     0
 10
348.163
 20
112.612
 30
0.0
 11
348.327
 21
112.256
 31
0.0
  0
LINE
  8
0
 62
     0
 10
348.327
 20
112.256
 30
0.0
 11
348.463
 21
111.888
 31
0.0
  0
LINE
  8
0
 62
     0
 10
348.463
 20
111.888
 30
0.0
 11
348.569
 21
111.51
 31
0.0
  0
LINE
  8
0
 62
     0
 10
348.569
 20
111.51
 30
0.0
 11
348.646
 21
111.125
 31
0.0
  0
LINE
  8
0
 62
     0
 10
348.646
 20
111.125
 30
0.0
 11
348.693
 21
110.735
 31
0.0
  0
LINE
  8
0
 62
     0
 10
348.693
 20
110.735
 30
0.0
 11
348.708
 21
110.344
 31
0.0
  0
LINE
  8
0
 62
     0
 10
348.708
 20
110.344
 30
0.0
 11
348.708
 21
5.09185
 31
0.0
  0
LINE
  8
0
 62
     0
 10
348.708
 20
5.09185
 30
0.0
 11
348.693
 21
4.70048
 31
0.0
  0
LINE
  8
0
 62
     0
 10
348.693
 20
4.70048
 30
0.0
 11
348.646
 21
4.30911
 31
0.0
  0
LINE
  8
0
 62
     0
 10
348.646
 20
4.30911
 30
0.0
 11
348.569
 21
3.92465
 31
0.0
  0
LINE
  8
0
 62
     0
 10
348.569
 20
3.92465
 30
0.0
 11
348.463
 21
3.5457
 31
0.0
  0
LINE
  8
0
 62
     0
 10
348.463
 20
3.5457
 30
0.0
 11
348.327
 21
3.17776
 31
0.0
  0
LINE
  8
0
 62
     0
 10
348.327
 20
3.17776
 30
0.0
 11
348.163
 21
2.82222
 31
0.0
  0
LINE
  8
0
 62
     0
 10
348.163
 20
2.82222
 30
0.0
 11
347.971
 21
2.48047
 31
0.0
  0
LINE
  8
0
 62
     0
 10
347.971
 20
2.48047
 30
0.0
 11
347.752
 21
2.15249
 31
0.0
  0
LINE
  8
0
 62
     0
 10
347.752
 20
2.15249
 30
0.0
 11
347.509
 21
1.84381
 31
0.0
  0
LINE
  8
0
 62
     0
 10
347.509
 20
1.84381
 30
0.0
 11
347.244
 21
1.55718
 31
0.0
  0
LINE
  8
0
 62
     0
 10
347.244
 20
1.55718
 30
0.0
 11
346.954
 21
1.28984
 31
0.0
  0
LINE
  8
0
 62
     0
 10
346.954
 20
1.28984
 30
0.0
 11
346.647
 21
1.04593
 31
0.0
  0
LINE
  8
0
 62
     0
 10
346.647
 20
1.04593
 30
0.0
 11
346.32
 21
0.828202
 31
0.0
  0
LINE
  8
0
 62
     0
 10
346.32
 20
0.828202
 30
0.0
 11
345.977
 21
0.636655
 31
0.0
  0
LINE
  8
0
 62
     0
 10
345.977
 20
0.636655
 30
0.0
 11
345.62
 21
0.472666
 31
0.0
  0
LINE
  8
0
 62
     0
 10
345.62
 20
0.472666
 30
0.0
 11
345.252
 21
0.336241
 31
0.0
  0
LINE
  8
0
 62
     0
 10
345.252
 20
0.336241
 30
0.0
 11
344.875
 21
0.23151
 31
0.0
  0
LINE
  8
0
 62
     0
 10
344.875
 20
0.23151
 30
0.0
 11
344.49
 21
0.152962
 31
0.0
  0
LINE
  8
0
 62
     0
 10
344.49
 20
0.152962
 30
0.0
 11
344.1
 21
0.107487
 31
0.0
  0
LINE
  8
0
 62
     0
 10
344.1
 20
0.107487
 30
0.0
 11
343.708
 21
0.0909507
 31
0.0
  0
LINE
  8
0
 62
     0
 10
343.708
 20
0.0909507
 30
0.0
 11
5.0946
 21
0.0923286
 31
0.0
  0
LINE
  8
0
 62
     0
 10
5.0946
 20
0.0923286
 30
0.0
 11
4.70186
 21
0.107487
 31
0.0
  0
LINE
  8
0
 62
     0
 10
4.70186
 20
0.107487
 30
0.0
 11
4.3119
 21
0.152962
 31
0.0
  0
LINE
  8
0
 62
     0
 10
4.3119
 20
0.152962
 30
0.0
 11
3.9274
 21
0.23151
 31
0.0
  0
LINE
  8
0
 62
     0
 10
3.9274
 20
0.23151
 30
0.0
 11
3.54845
 21
0.336241
 31
0.0
  0
LINE
  8
0
 62
     0
 10
3.54845
 20
0.336241
 30
0.0
 11
3.18051
 21
0.472666
 31
0.0
  0
LINE
  8
0
 62
     0
 10
3.18051
 20
0.472666
 30
0.0
 11
2.82498
 21
0.636655
 31
0.0
  0
LINE
  8
0
 62
     0
 10
2.82498
 20
0.636655
 30
0.0
 11
2.48185
 21
0.828202
 31
0.0
  0
LINE
  8
0
 62
     0
 10
2.48185
 20
0.828202
 30
0.0
 11
2.15525
 21
1.04593
 31
0.0
  0
LINE
  8
0
 62
     0
 10
2.15525
 20
1.04593
 30
0.0
 11
1.84657
 21
1.28984
 31
0.0
  0
LINE
  8
0
 62
     0
 10
1.84657
 20
1.28984
 30
0.0
 11
1.55856
 21
1.55718
 31
0.0
  0
LINE
  8
0
 62
     0
 10
1.55856
 20
1.55718
 30
0.0
 11
1.29122
 21
1.84381
 31
0.0
  0
LINE
  8
0
 62
     0
 10
1.29122
 20
1.84381
 30
0.0
 11
1.04869
 21
2.15249
 31
0.0
  0
LINE
  8
0
 62
     0
 10
1.04869
 20
2.15249
 30
0.0
 11
0.830957
 21
2.48047
 31
0.0
  0
LINE
  8
0
 62
     0
 10
0.830957
 20
2.48047
 30
0.0
 11
0.63941
 21
2.82222
 31
0.0
  0
LINE
  8
0
 62
     0
 10
0.63941
 20
2.82222
 30
0.0
 11
0.475424
 21
3.17776
 31
0.0
  0
LINE
  8
0
 62
     0
 10
0.475424
 20
3.17776
 30
0.0
 11
0.338998
 21
3.5457
 31
0.0
  0
LINE
  8
0
 62
     0
 10
0.338998
 20
3.5457
 30
0.0
 11
0.232888
 21
3.92465
 31
0.0
  0
LINE
  8
0
 62
     0
 10
0.232888
 20
3.92465
 30
0.0
 11
0.155718
 21
4.30911
 31
0.0
  0
LINE
  8
0
 62
     0
 10
0.155718
 20
4.30911
 30
0.0
 11
0.110243
 21
4.70048
 31
0.0
  0
LINE
  8
0
 62
     0
 10
0.110243
 20
4.70048
 30
0.0
 11
0.0937066
 21
5.09185
 31
0.0
  0
LINE
  8
0
 62
     0
 10
0.0937066
 20
5.09185
 30
0.0
 11
0.0950846
 21
110.344
 31
0.0
  0
LINE
  8
0
 62
     0
 10
0.0950846
 20
110.344
 30
0.0
 11
0.110243
 21
110.735
 31
0.0
  0
LINE
  8
0
 62
     0
 10
0.110243
 20
110.735
 30
0.0
 11
0.155718
 21
111.125
 31
0.0
  0
LINE
  8
0
 62
     0
 10
0.155718
 20
111.125
 30
0.0
 11
0.232888
 21
111.51
 31
0.0
  0
LINE
  8
0
 62
     0
 10
0.232888
 20
111.51
 30
0.0
 11
0.338998
 21
111.888
 31
0.0
  0
LINE
  8
0
 62
     0
 10
0.338998
 20
111.888
 30
0.0
 11
0.475424
 21
112.256
 31
0.0
  0
LINE
  8
0
 62
     0
 10
0.475424
 20
112.256
 30
0.0
 11
0.63941
 21
112.612
 31
0.0
  0
LINE
  8
0
 62
     0
 10
0.63941
 20
112.612
 30
0.0
 11
0.830957
 21
112.955
 31
0.0
  0
LINE
  8
0
 62
     0
 10
0.830957
 20
112.955
 30
0.0
 11
1.04869
 21
113.283
 31
0.0
  0
LINE
  8
0
 62
     0
 10
1.04869
 20
113.283
 30
0.0
 11
1.29122
 21
113.592
 31
0.0
  0
LINE
  8
0
 62
     0
 10
1.29122
 20
113.592
 30
0.0
 11
1.55856
 21
113.878
 31
0.0
  0
LINE
  8
0
 62
     0
 10
1.55856
 20
113.878
 30
0.0
 11
1.84657
 21
114.146
 31
0.0
  0
LINE
  8
0
 62
     0
 10
1.84657
 20
114.146
 30
0.0
 11
2.15525
 21
114.388
 31
0.0
  0
LINE
  8
0
 62
     0
 10
2.15525
 20
114.388
 30
0.0
 11
2.48185
 21
114.607
 31
0.0
  0
LINE
  8
0
 62
     0
 10
2.48185
 20
114.607
 30
0.0
 11
2.82498
 21
114.799
 31
0.0
  0
LINE
  8
0
 62
     0
 10
2.82498
 20
114.799
 30
0.0
 11
3.18051
 21
114.961
 31
0.0
  0
LINE
  8
0
 62
     0
 10
3.18051
 20
114.961
 30
0.0
 11
3.54845
 21
115.098
 31
0.0
  0
LINE
  8
0
 62
     0
 10
3.54845
 20
115.098
 30
0.0
 11
3.9274
 21
115.204
 31
0.0
  0
LINE
  8
0
 62
     0
 10
3.9274
 20
115.204
 30
0.0
 11
4.3119
 21
115.282
 31
0.0
  0
LINE
  8
0
 62
     0
 10
4.3119
 20
115.282
 30
0.0
 11
4.70186
 21
115.328
 31
0.0
  0
LINE
  8
0
 62
     0
 10
4.70186
 20
115.328
 30
0.0
 11
5.0946
 21
115.343
 31
0.0
  0
LINE
  8
0
 62
     0
 10
5.0946
 20
115.343
 30
0.0
 11
343.708
 21
115.342
 31
0.0
  0
LINE
  8
0
 62
     0
 10
343.167
 20
6.75792
 30
0.0
 11
342.678
 21
6.50847
 31
0.0
  0
LINE
  8
0
 62
     0
 10
342.678
 20
6.50847
 30
0.0
 11
342.292
 21
6.11988
 31
0.0
  0
LINE
  8
0
 62
     0
 10
342.292
 20
6.11988
 30
0.0
 11
342.044
 21
5.63203
 31
0.0
  0
LINE
  8
0
 62
     0
 10
342.044
 20
5.63203
 30
0.0
 11
341.957
 21
5.09185
 31
0.0
  0
LINE
  8
0
 62
     0
 10
341.957
 20
5.09185
 30
0.0
 11
342.044
 21
4.55306
 31
0.0
  0
LINE
  8
0
 62
     0
 10
342.044
 20
4.55306
 30
0.0
 11
342.292
 21
4.06245
 31
0.0
  0
LINE
  8
0
 62
     0
 10
342.292
 20
4.06245
 30
0.0
 11
342.678
 21
3.67661
 31
0.0
  0
LINE
  8
0
 62
     0
 10
342.678
 20
3.67661
 30
0.0
 11
343.167
 21
3.42718
 31
0.0
  0
LINE
  8
0
 62
     0
 10
343.167
 20
3.42718
 30
0.0
 11
343.708
 21
3.34174
 31
0.0
  0
LINE
  8
0
 62
     0
 10
343.708
 20
3.34174
 30
0.0
 11
344.249
 21
3.42718
 31
0.0
  0
LINE
  8
0
 62
     0
 10
344.249
 20
3.42718
 30
0.0
 11
344.737
 21
3.67661
 31
0.0
  0
LINE
  8
0
 62
     0
 10
344.737
 20
3.67661
 30
0.0
 11
345.124
 21
4.06245
 31
0.0
  0
LINE
  8
0
 62
     0
 10
345.124
 20
4.06245
 30
0.0
 11
345.372
 21
4.55306
 31
0.0
  0
LINE
  8
0
 62
     0
 10
345.372
 20
4.55306
 30
0.0
 11
345.458
 21
5.09185
 31
0.0
  0
LINE
  8
0
 62
     0
 10
345.458
 20
5.09185
 30
0.0
 11
345.372
 21
5.63203
 31
0.0
  0
LINE
  8
0
 62
     0
 10
345.372
 20
5.63203
 30
0.0
 11
345.124
 21
6.11988
 31
0.0
  0
LINE
  8
0
 62
     0
 10
345.124
 20
6.11988
 30
0.0
 11
344.737
 21
6.50847
 31
0.0
  0
LINE
  8
0
 62
     0
 10
344.737
 20
6.50847
 30
0.0
 11
344.249
 21
6.75792
 31
0.0
  0
LINE
  8
0
 62
     0
 10
344.249
 20
6.75792
 30
0.0
 11
343.708
 21
6.84195
 31
0.0
  0
LINE
  8
0
 62
     0
 10
343.708
 20
6.84195
 30
0.0
 11
343.167
 21
6.75792
 31
0.0
  0
LINE
  8
0
 62
     0
 10
258.513
 20
6.75792
 30
0.0
 11
258.025
 21
6.50847
 31
0.0
  0
LINE
  8
0
 62
     0
 10
258.025
 20
6.50847
 30
0.0
 11
257.639
 21
6.11988
 31
0.0
  0
LINE
  8
0
 62
     0
 10
257.639
 20
6.11988
 30
0.0
 11
257.39
 21
5.63203
 31
0.0
  0
LINE
  8
0
 62
     0
 10
257.39
 20
5.63203
 30
0.0
 11
257.304
 21
5.09185
 31
0.0
  0
LINE
  8
0
 62
     0
 10
257.304
 20
5.09185
 30
0.0
 11
257.39
 21
4.55306
 31
0.0
  0
LINE
  8
0
 62
     0
 10
257.39
 20
4.55306
 30
0.0
 11
257.639
 21
4.06245
 31
0.0
  0
LINE
  8
0
 62
     0
 10
257.639
 20
4.06245
 30
0.0
 11
258.025
 21
3.67661
 31
0.0
  0
LINE
  8
0
 62
     0
 10
258.025
 20
3.67661
 30
0.0
 11
258.513
 21
3.42718
 31
0.0
  0
LINE
  8
0
 62
     0
 10
258.513
 20
3.42718
 30
0.0
 11
259.055
 21
3.34174
 31
0.0
  0
LINE
  8
0
 62
     0
 10
259.055
 20
3.34174
 30
0.0
 11
259.595
 21
3.42718
 31
0.0
  0
LINE
  8
0
 62
     0
 10
259.595
 20
3.42718
 30
0.0
 11
260.083
 21
3.67661
 31
0.0
  0
LINE
  8
0
 62
     0
 10
260.083
 20
3.67661
 30
0.0
 11
260.47
 21
4.06245
 31
0.0
  0
LINE
  8
0
 62
     0
 10
260.47
 20
4.06245
 30
0.0
 11
260.719
 21
4.55306
 31
0.0
  0
LINE
  8
0
 62
     0
 10
260.719
 20
4.55306
 30
0.0
 11
260.805
 21
5.09185
 31
0.0
  0
LINE
  8
0
 62
     0
 10
260.805
 20
5.09185
 30
0.0
 11
260.719
 21
5.63203
 31
0.0
  0
LINE
  8
0
 62
     0
 10
260.719
 20
5.63203
 30
0.0
 11
260.47
 21
6.11988
 31
0.0
  0
LINE
  8
0
 62
     0
 10
260.47
 20
6.11988
 30
0.0
 11
260.083
 21
6.50847
 31
0.0
  0
LINE
  8
0
 62
     0
 10
260.083
 20
6.50847
 30
0.0
 11
259.595
 21
6.75792
 31
0.0
  0
LINE
  8
0
 62
     0
 10
259.595
 20
6.75792
 30
0.0
 11
259.055
 21
6.84195
 31
0.0
  0
LINE
  8
0
 62
     0
 10
259.055
 20
6.84195
 30
0.0
 11
258.513
 21
6.75792
 31
0.0
  0
LINE
  8
0
 62
     0
 10
173.86
 20
6.75792
 30
0.0
 11
173.372
 21
6.50847
 31
0.0
  0
LINE
  8
0
 62
     0
 10
173.372
 20
6.50847
 30
0.0
 11
172.985
 21
6.11988
 31
0.0
  0
LINE
  8
0
 62
     0
 10
172.985
 20
6.11988
 30
0.0
 11
172.737
 21
5.63203
 31
0.0
  0
LINE
  8
0
 62
     0
 10
172.737
 20
5.63203
 30
0.0
 11
172.65
 21
5.09185
 31
0.0
  0
LINE
  8
0
 62
     0
 10
172.65
 20
5.09185
 30
0.0
 11
172.737
 21
4.55306
 31
0.0
  0
LINE
  8
0
 62
     0
 10
172.737
 20
4.55306
 30
0.0
 11
172.985
 21
4.06245
 31
0.0
  0
LINE
  8
0
 62
     0
 10
172.985
 20
4.06245
 30
0.0
 11
173.372
 21
3.67661
 31
0.0
  0
LINE
  8
0
 62
     0
 10
173.372
 20
3.67661
 30
0.0
 11
173.86
 21
3.42718
 31
0.0
  0
LINE
  8
0
 62
     0
 10
173.86
 20
3.42718
 30
0.0
 11
174.4
 21
3.34174
 31
0.0
  0
LINE
  8
0
 62
     0
 10
174.4
 20
3.34174
 30
0.0
 11
174.942
 21
3.42718
 31
0.0
  0
LINE
  8
0
 62
     0
 10
174.942
 20
3.42718
 30
0.0
 11
175.43
 21
3.67661
 31
0.0
  0
LINE
  8
0
 62
     0
 10
175.43
 20
3.67661
 30
0.0
 11
175.817
 21
4.06245
 31
0.0
  0
LINE
  8
0
 62
     0
 10
175.817
 20
4.06245
 30
0.0
 11
176.066
 21
4.55306
 31
0.0
  0
LINE
  8
0
 62
     0
 10
176.066
 20
4.55306
 30
0.0
 11
176.15
 21
5.09185
 31
0.0
  0
LINE
  8
0
 62
     0
 10
176.15
 20
5.09185
 30
0.0
 11
176.066
 21
5.63203
 31
0.0
  0
LINE
  8
0
 62
     0
 10
176.066
 20
5.63203
 30
0.0
 11
175.817
 21
6.11988
 31
0.0
  0
LINE
  8
0
 62
     0
 10
175.817
 20
6.11988
 30
0.0
 11
175.43
 21
6.50847
 31
0.0
  0
LINE
  8
0
 62
     0
 10
175.43
 20
6.50847
 30
0.0
 11
174.942
 21
6.75792
 31
0.0
  0
LINE
  8
0
 62
     0
 10
174.942
 20
6.75792
 30
0.0
 11
174.4
 21
6.84195
 31
0.0
  0
LINE
  8
0
 62
     0
 10
174.4
 20
6.84195
 30
0.0
 11
173.86
 21
6.75792
 31
0.0
  0
LINE
  8
0
 62
     0
 10
89.2073
 20
6.75792
 30
0.0
 11
88.718
 21
6.50847
 31
0.0
  0
LINE
  8
0
 62
     0
 10
88.718
 20
6.50847
 30
0.0
 11
88.3324
 21
6.11988
 31
0.0
  0
LINE
  8
0
 62
     0
 10
88.3324
 20
6.11988
 30
0.0
 11
88.0844
 21
5.63203
 31
0.0
  0
LINE
  8
0
 62
     0
 10
88.0844
 20
5.63203
 30
0.0
 11
87.9972
 21
5.09185
 31
0.0
  0
LINE
  8
0
 62
     0
 10
87.9972
 20
5.09185
 30
0.0
 11
88.0844
 21
4.55306
 31
0.0
  0
LINE
  8
0
 62
     0
 10
88.0844
 20
4.55306
 30
0.0
 11
88.3324
 21
4.06245
 31
0.0
  0
LINE
  8
0
 62
     0
 10
88.3324
 20
4.06245
 30
0.0
 11
88.718
 21
3.67661
 31
0.0
  0
LINE
  8
0
 62
     0
 10
88.718
 20
3.67661
 30
0.0
 11
89.2073
 21
3.42718
 31
0.0
  0
LINE
  8
0
 62
     0
 10
89.2073
 20
3.42718
 30
0.0
 11
89.7474
 21
3.34174
 31
0.0
  0
LINE
  8
0
 62
     0
 10
89.7474
 20
3.34174
 30
0.0
 11
90.2892
 21
3.42718
 31
0.0
  0
LINE
  8
0
 62
     0
 10
90.2892
 20
3.42718
 30
0.0
 11
90.7754
 21
3.67661
 31
0.0
  0
LINE
  8
0
 62
     0
 10
90.7754
 20
3.67661
 30
0.0
 11
91.1641
 21
4.06245
 31
0.0
  0
LINE
  8
0
 62
     0
 10
91.1641
 20
4.06245
 30
0.0
 11
91.4121
 21
4.55306
 31
0.0
  0
LINE
  8
0
 62
     0
 10
91.4121
 20
4.55306
 30
0.0
 11
91.4975
 21
5.09185
 31
0.0
  0
LINE
  8
0
 62
     0
 10
91.4975
 20
5.09185
 30
0.0
 11
91.4121
 21
5.63203
 31
0.0
  0
LINE
  8
0
 62
     0
 10
91.4121
 20
5.63203
 30
0.0
 11
91.1641
 21
6.11988
 31
0.0
  0
LINE
  8
0
 62
     0
 10
91.1641
 20
6.11988
 30
0.0
 11
90.7754
 21
6.50847
 31
0.0
  0
LINE
  8
0
 62
     0
 10
90.7754
 20
6.50847
 30
0.0
 11
90.2892
 21
6.75792
 31
0.0
  0
LINE
  8
0
 62
     0
 10
90.2892
 20
6.75792
 30
0.0
 11
89.7474
 21
6.84195
 31
0.0
  0
LINE
  8
0
 62
     0
 10
89.7474
 20
6.84195
 30
0.0
 11
89.2073
 21
6.75792
 31
0.0
  0
LINE
  8
0
 62
     0
 10
4.55443
 20
6.75792
 30
0.0
 11
4.0652
 21
6.50847
 31
0.0
  0
LINE
  8
0
 62
     0
 10
4.0652
 20
6.50847
 30
0.0
 11
3.67937
 21
6.11988
 31
0.0
  0
LINE
  8
0
 62
     0
 10
3.67937
 20
6.11988
 30
0.0
 11
3.42994
 21
5.63203
 31
0.0
  0
LINE
  8
0
 62
     0
 10
3.42994
 20
5.63203
 30
0.0
 11
3.34312
 21
5.09185
 31
0.0
  0
LINE
  8
0
 62
     0
 10
3.34312
 20
5.09185
 30
0.0
 11
3.42994
 21
4.55306
 31
0.0
  0
LINE
  8
0
 62
     0
 10
3.42994
 20
4.55306
 30
0.0
 11
3.67937
 21
4.06245
 31
0.0
  0
LINE
  8
0
 62
     0
 10
3.67937
 20
4.06245
 30
0.0
 11
4.0652
 21
3.67661
 31
0.0
  0
LINE
  8
0
 62
     0
 10
4.0652
 20
3.67661
 30
0.0
 11
4.55443
 21
3.42718
 31
0.0
  0
LINE
  8
0
 62
     0
 10
4.55443
 20
3.42718
 30
0.0
 11
5.09323
 21
3.34174
 31
0.0
  0
LINE
  8
0
 62
     0
 10
5.09323
 20
3.34174
 30
0.0
 11
5.63481
 21
3.42718
 31
0.0
  0
LINE
  8
0
 62
     0
 10
5.63481
 20
3.42718
 30
0.0
 11
6.12263
 21
3.67661
 31
0.0
  0
LINE
  8
0
 62
     0
 10
6.12263
 20
3.67661
 30
0.0
 11
6.50984
 21
4.06245
 31
0.0
  0
LINE
  8
0
 62
     0
 10
6.50984
 20
4.06245
 30
0.0
 11
6.75929
 21
4.55306
 31
0.0
  0
LINE
  8
0
 62
     0
 10
6.75929
 20
4.55306
 30
0.0
 11
6.84332
 21
5.09185
 31
0.0
  0
LINE
  8
0
 62
     0
 10
6.84332
 20
5.09185
 30
0.0
 11
6.75929
 21
5.63203
 31
0.0
  0
LINE
  8
0
 62
     0
 10
6.75929
 20
5.63203
 30
0.0
 11
6.50984
 21
6.11988
 31
0.0
  0
LINE
  8
0
 62
     0
 10
6.50984
 20
6.11988
 30
0.0
 11
6.12263
 21
6.50847
 31
0.0
  0
LINE
  8
0
 62
     0
 10
6.12263
 20
6.50847
 30
0.0
 11
5.63481
 21
6.75792
 31
0.0
  0
LINE
  8
0
 62
     0
 10
5.63481
 20
6.75792
 30
0.0
 11
5.09323
 21
6.84195
 31
0.0
  0
LINE
  8
0
 62
     0
 10
5.09323
 20
6.84195
 30
0.0
 11
4.55443
 21
6.75792
 31
0.0
  0
LINE
  8
0
 62
     0
 10
134.063
 20
26.6182
 30
0.0
 11
134.063
 21
25.6191
 31
0.0
  0
LINE
  8
0
 62
     0
 10
134.063
 20
25.6191
 30
0.0
 11
133.263
 21
25.6191
 31
0.0
  0
LINE
  8
0
 62
     0
 10
133.263
 20
25.6191
 30
0.0
 11
133.263
 21
22.5185
 31
0.0
  0
LINE
  8
0
 62
     0
 10
133.263
 20
22.5185
 30
0.0
 11
134.063
 21
22.5185
 31
0.0
  0
LINE
  8
0
 62
     0
 10
134.063
 20
22.5185
 30
0.0
 11
134.063
 21
21.9177
 31
0.0
  0
LINE
  8
0
 62
     0
 10
134.063
 20
21.9177
 30
0.0
 11
94.4383
 21
21.9177
 31
0.0
  0
LINE
  8
0
 62
     0
 10
94.4383
 20
21.9177
 30
0.0
 11
94.4383
 21
25.1478
 31
0.0
  0
LINE
  8
0
 62
     0
 10
94.4383
 20
25.1478
 30
0.0
 11
92.7132
 21
25.1478
 31
0.0
  0
LINE
  8
0
 62
     0
 10
92.7132
 20
25.1478
 30
0.0
 11
92.7132
 21
26.0683
 31
0.0
  0
LINE
  8
0
 62
     0
 10
92.7132
 20
26.0683
 30
0.0
 11
89.4126
 21
26.0683
 31
0.0
  0
LINE
  8
0
 62
     0
 10
89.4126
 20
26.0683
 30
0.0
 11
89.4126
 21
25.1478
 31
0.0
  0
LINE
  8
0
 62
     0
 10
89.4126
 20
25.1478
 30
0.0
 11
87.6875
 21
25.1478
 31
0.0
  0
LINE
  8
0
 62
     0
 10
87.6875
 20
25.1478
 30
0.0
 11
87.6875
 21
21.9177
 31
0.0
  0
LINE
  8
0
 62
     0
 10
87.6875
 20
21.9177
 30
0.0
 11
86.8634
 21
21.9177
 31
0.0
  0
LINE
  8
0
 62
     0
 10
86.8634
 20
21.9177
 30
0.0
 11
86.8634
 21
19.1189
 31
0.0
  0
LINE
  8
0
 62
     0
 10
86.8634
 20
19.1189
 30
0.0
 11
87.6875
 21
19.1189
 31
0.0
  0
LINE
  8
0
 62
     0
 10
87.6875
 20
19.1189
 30
0.0
 11
87.6875
 21
12.8475
 31
0.0
  0
LINE
  8
0
 62
     0
 10
87.6875
 20
12.8475
 30
0.0
 11
89.4126
 21
12.8475
 31
0.0
  0
LINE
  8
0
 62
     0
 10
89.4126
 20
12.8475
 30
0.0
 11
89.4126
 21
11.8677
 31
0.0
  0
LINE
  8
0
 62
     0
 10
89.4126
 20
11.8677
 30
0.0
 11
92.7132
 21
11.8677
 31
0.0
  0
LINE
  8
0
 62
     0
 10
92.7132
 20
11.8677
 30
0.0
 11
92.7132
 21
12.8475
 31
0.0
  0
LINE
  8
0
 62
     0
 10
92.7132
 20
12.8475
 30
0.0
 11
94.4383
 21
12.8475
 31
0.0
  0
LINE
  8
0
 62
     0
 10
94.4383
 20
12.8475
 30
0.0
 11
94.4383
 21
17.3178
 31
0.0
  0
LINE
  8
0
 62
     0
 10
94.4383
 20
17.3178
 30
0.0
 11
134.063
 21
17.3178
 31
0.0
  0
LINE
  8
0
 62
     0
 10
134.063
 20
17.3178
 30
0.0
 11
134.063
 21
16.717
 31
0.0
  0
LINE
  8
0
 62
     0
 10
134.063
 20
16.717
 30
0.0
 11
133.263
 21
16.717
 31
0.0
  0
LINE
  8
0
 62
     0
 10
133.263
 20
16.717
 30
0.0
 11
133.263
 21
13.6178
 31
0.0
  0
LINE
  8
0
 62
     0
 10
133.263
 20
13.6178
 30
0.0
 11
134.063
 21
13.6178
 31
0.0
  0
LINE
  8
0
 62
     0
 10
134.063
 20
13.6178
 30
0.0
 11
134.063
 21
12.6173
 31
0.0
  0
LINE
  8
0
 62
     0
 10
134.063
 20
12.6173
 30
0.0
 11
148.063
 21
12.6173
 31
0.0
  0
LINE
  8
0
 62
     0
 10
148.063
 20
12.6173
 30
0.0
 11
148.063
 21
13.6178
 31
0.0
  0
LINE
  8
0
 62
     0
 10
148.063
 20
13.6178
 30
0.0
 11
148.863
 21
13.6178
 31
0.0
  0
LINE
  8
0
 62
     0
 10
148.863
 20
13.6178
 30
0.0
 11
148.863
 21
16.717
 31
0.0
  0
LINE
  8
0
 62
     0
 10
148.863
 20
16.717
 30
0.0
 11
148.063
 21
16.717
 31
0.0
  0
LINE
  8
0
 62
     0
 10
148.063
 20
16.717
 30
0.0
 11
148.063
 21
17.3178
 31
0.0
  0
LINE
  8
0
 62
     0
 10
148.063
 20
17.3178
 30
0.0
 11
187.687
 21
17.3178
 31
0.0
  0
LINE
  8
0
 62
     0
 10
187.687
 20
17.3178
 30
0.0
 11
187.687
 21
12.8475
 31
0.0
  0
LINE
  8
0
 62
     0
 10
187.687
 20
12.8475
 30
0.0
 11
189.413
 21
12.8475
 31
0.0
  0
LINE
  8
0
 62
     0
 10
189.413
 20
12.8475
 30
0.0
 11
189.413
 21
11.8677
 31
0.0
  0
LINE
  8
0
 62
     0
 10
189.413
 20
11.8677
 30
0.0
 11
192.713
 21
11.8677
 31
0.0
  0
LINE
  8
0
 62
     0
 10
192.713
 20
11.8677
 30
0.0
 11
192.713
 21
12.8475
 31
0.0
  0
LINE
  8
0
 62
     0
 10
192.713
 20
12.8475
 30
0.0
 11
194.438
 21
12.8475
 31
0.0
  0
LINE
  8
0
 62
     0
 10
194.438
 20
12.8475
 30
0.0
 11
194.438
 21
19.1189
 31
0.0
  0
LINE
  8
0
 62
     0
 10
194.438
 20
19.1189
 30
0.0
 11
195.263
 21
19.1189
 31
0.0
  0
LINE
  8
0
 62
     0
 10
195.263
 20
19.1189
 30
0.0
 11
195.263
 21
21.9177
 31
0.0
  0
LINE
  8
0
 62
     0
 10
195.263
 20
21.9177
 30
0.0
 11
194.438
 21
21.9177
 31
0.0
  0
LINE
  8
0
 62
     0
 10
194.438
 20
21.9177
 30
0.0
 11
194.438
 21
25.1478
 31
0.0
  0
LINE
  8
0
 62
     0
 10
194.438
 20
25.1478
 30
0.0
 11
192.713
 21
25.1478
 31
0.0
  0
LINE
  8
0
 62
     0
 10
192.713
 20
25.1478
 30
0.0
 11
192.713
 21
26.0683
 31
0.0
  0
LINE
  8
0
 62
     0
 10
192.713
 20
26.0683
 30
0.0
 11
189.413
 21
26.0683
 31
0.0
  0
LINE
  8
0
 62
     0
 10
189.413
 20
26.0683
 30
0.0
 11
189.413
 21
25.1478
 31
0.0
  0
LINE
  8
0
 62
     0
 10
189.413
 20
25.1478
 30
0.0
 11
187.687
 21
25.1478
 31
0.0
  0
LINE
  8
0
 62
     0
 10
187.687
 20
25.1478
 30
0.0
 11
187.687
 21
21.9177
 31
0.0
  0
LINE
  8
0
 62
     0
 10
187.687
 20
21.9177
 30
0.0
 11
148.063
 21
21.9177
 31
0.0
  0
LINE
  8
0
 62
     0
 10
148.063
 20
21.9177
 30
0.0
 11
148.063
 21
22.5185
 31
0.0
  0
LINE
  8
0
 62
     0
 10
148.063
 20
22.5185
 30
0.0
 11
148.863
 21
22.5185
 31
0.0
  0
LINE
  8
0
 62
     0
 10
148.863
 20
22.5185
 30
0.0
 11
148.863
 21
25.6191
 31
0.0
  0
LINE
  8
0
 62
     0
 10
148.863
 20
25.6191
 30
0.0
 11
148.063
 21
25.6191
 31
0.0
  0
LINE
  8
0
 62
     0
 10
148.063
 20
25.6191
 30
0.0
 11
148.063
 21
26.6182
 31
0.0
  0
LINE
  8
0
 62
     0
 10
148.063
 20
26.6182
 30
0.0
 11
134.063
 21
26.6182
 31
0.0
  0
LINE
  8
0
 62
     0
 10
15.0013
 20
26.6182
 30
0.0
 11
15.0013
 21
25.6191
 31
0.0
  0
LINE
  8
0
 62
     0
 10
15.0013
 20
25.6191
 30
0.0
 11
14.2007
 21
25.6191
 31
0.0
  0
LINE
  8
0
 62
     0
 10
14.2007
 20
25.6191
 30
0.0
 11
14.2007
 21
22.5185
 31
0.0
  0
LINE
  8
0
 62
     0
 10
14.2007
 20
22.5185
 30
0.0
 11
15.0013
 21
22.5185
 31
0.0
  0
LINE
  8
0
 62
     0
 10
15.0013
 20
22.5185
 30
0.0
 11
15.0013
 21
16.717
 31
0.0
  0
LINE
  8
0
 62
     0
 10
15.0013
 20
16.717
 30
0.0
 11
14.2007
 21
16.717
 31
0.0
  0
LINE
  8
0
 62
     0
 10
14.2007
 20
16.717
 30
0.0
 11
14.2007
 21
13.6178
 31
0.0
  0
LINE
  8
0
 62
     0
 10
14.2007
 20
13.6178
 30
0.0
 11
15.0013
 21
13.6178
 31
0.0
  0
LINE
  8
0
 62
     0
 10
15.0013
 20
13.6178
 30
0.0
 11
15.0013
 21
12.6173
 31
0.0
  0
LINE
  8
0
 62
     0
 10
15.0013
 20
12.6173
 30
0.0
 11
29.0008
 21
12.6173
 31
0.0
  0
LINE
  8
0
 62
     0
 10
29.0008
 20
12.6173
 30
0.0
 11
29.0008
 21
13.6178
 31
0.0
  0
LINE
  8
0
 62
     0
 10
29.0008
 20
13.6178
 30
0.0
 11
29.8001
 21
13.6178
 31
0.0
  0
LINE
  8
0
 62
     0
 10
29.8001
 20
13.6178
 30
0.0
 11
29.8001
 21
16.717
 31
0.0
  0
LINE
  8
0
 62
     0
 10
29.8001
 20
16.717
 30
0.0
 11
29.0008
 21
16.717
 31
0.0
  0
LINE
  8
0
 62
     0
 10
29.0008
 20
16.717
 30
0.0
 11
29.0008
 21
22.5185
 31
0.0
  0
LINE
  8
0
 62
     0
 10
29.0008
 20
22.5185
 30
0.0
 11
29.8001
 21
22.5185
 31
0.0
  0
LINE
  8
0
 62
     0
 10
29.8001
 20
22.5185
 30
0.0
 11
29.8001
 21
25.6191
 31
0.0
  0
LINE
  8
0
 62
     0
 10
29.8001
 20
25.6191
 30
0.0
 11
29.0008
 21
25.6191
 31
0.0
  0
LINE
  8
0
 62
     0
 10
29.0008
 20
25.6191
 30
0.0
 11
29.0008
 21
26.6182
 31
0.0
  0
LINE
  8
0
 62
     0
 10
29.0008
 20
26.6182
 30
0.0
 11
15.0013
 21
26.6182
 31
0.0
  0
LINE
  8
0
 62
     0
 10
38.8126
 20
26.6182
 30
0.0
 11
38.8126
 21
25.6191
 31
0.0
  0
LINE
  8
0
 62
     0
 10
38.8126
 20
25.6191
 30
0.0
 11
38.0132
 21
25.6191
 31
0.0
  0
LINE
  8
0
 62
     0
 10
38.0132
 20
25.6191
 30
0.0
 11
38.0132
 21
22.5185
 31
0.0
  0
LINE
  8
0
 62
     0
 10
38.0132
 20
22.5185
 30
0.0
 11
38.8126
 21
22.5185
 31
0.0
  0
LINE
  8
0
 62
     0
 10
38.8126
 20
22.5185
 30
0.0
 11
38.8126
 21
16.717
 31
0.0
  0
LINE
  8
0
 62
     0
 10
38.8126
 20
16.717
 30
0.0
 11
38.0132
 21
16.717
 31
0.0
  0
LINE
  8
0
 62
     0
 10
38.0132
 20
16.717
 30
0.0
 11
38.0132
 21
13.6178
 31
0.0
  0
LINE
  8
0
 62
     0
 10
38.0132
 20
13.6178
 30
0.0
 11
38.8126
 21
13.6178
 31
0.0
  0
LINE
  8
0
 62
     0
 10
38.8126
 20
13.6178
 30
0.0
 11
38.8126
 21
12.6173
 31
0.0
  0
LINE
  8
0
 62
     0
 10
38.8126
 20
12.6173
 30
0.0
 11
52.8133
 21
12.6173
 31
0.0
  0
LINE
  8
0
 62
     0
 10
52.8133
 20
12.6173
 30
0.0
 11
52.8133
 21
13.6178
 31
0.0
  0
LINE
  8
0
 62
     0
 10
52.8133
 20
13.6178
 30
0.0
 11
53.6127
 21
13.6178
 31
0.0
  0
LINE
  8
0
 62
     0
 10
53.6127
 20
13.6178
 30
0.0
 11
53.6127
 21
16.717
 31
0.0
  0
LINE
  8
0
 62
     0
 10
53.6127
 20
16.717
 30
0.0
 11
52.8133
 21
16.717
 31
0.0
  0
LINE
  8
0
 62
     0
 10
52.8133
 20
16.717
 30
0.0
 11
52.8133
 21
22.5185
 31
0.0
  0
LINE
  8
0
 62
     0
 10
52.8133
 20
22.5185
 30
0.0
 11
53.6127
 21
22.5185
 31
0.0
  0
LINE
  8
0
 62
     0
 10
53.6127
 20
22.5185
 30
0.0
 11
53.6127
 21
25.6191
 31
0.0
  0
LINE
  8
0
 62
     0
 10
53.6127
 20
25.6191
 30
0.0
 11
52.8133
 21
25.6191
 31
0.0
  0
LINE
  8
0
 62
     0
 10
52.8133
 20
25.6191
 30
0.0
 11
52.8133
 21
26.6182
 31
0.0
  0
LINE
  8
0
 62
     0
 10
52.8133
 20
26.6182
 30
0.0
 11
38.8126
 21
26.6182
 31
0.0
  0
LINE
  8
0
 62
     0
 10
62.6262
 20
26.6182
 30
0.0
 11
62.6262
 21
25.6191
 31
0.0
  0
LINE
  8
0
 62
     0
 10
62.6262
 20
25.6191
 30
0.0
 11
61.8257
 21
25.6191
 31
0.0
  0
LINE
  8
0
 62
     0
 10
61.8257
 20
25.6191
 30
0.0
 11
61.8257
 21
22.5185
 31
0.0
  0
LINE
  8
0
 62
     0
 10
61.8257
 20
22.5185
 30
0.0
 11
62.6262
 21
22.5185
 31
0.0
  0
LINE
  8
0
 62
     0
 10
62.6262
 20
22.5185
 30
0.0
 11
62.6262
 21
16.717
 31
0.0
  0
LINE
  8
0
 62
     0
 10
62.6262
 20
16.717
 30
0.0
 11
61.8257
 21
16.717
 31
0.0
  0
LINE
  8
0
 62
     0
 10
61.8257
 20
16.717
 30
0.0
 11
61.8257
 21
13.6178
 31
0.0
  0
LINE
  8
0
 62
     0
 10
61.8257
 20
13.6178
 30
0.0
 11
62.6262
 21
13.6178
 31
0.0
  0
LINE
  8
0
 62
     0
 10
62.6262
 20
13.6178
 30
0.0
 11
62.6262
 21
12.6173
 31
0.0
  0
LINE
  8
0
 62
     0
 10
62.6262
 20
12.6173
 30
0.0
 11
76.6258
 21
12.6173
 31
0.0
  0
LINE
  8
0
 62
     0
 10
76.6258
 20
12.6173
 30
0.0
 11
76.6258
 21
13.6178
 31
0.0
  0
LINE
  8
0
 62
     0
 10
76.6258
 20
13.6178
 30
0.0
 11
77.4252
 21
13.6178
 31
0.0
  0
LINE
  8
0
 62
     0
 10
77.4252
 20
13.6178
 30
0.0
 11
77.4252
 21
16.717
 31
0.0
  0
LINE
  8
0
 62
     0
 10
77.4252
 20
16.717
 30
0.0
 11
76.6258
 21
16.717
 31
0.0
  0
LINE
  8
0
 62
     0
 10
76.6258
 20
16.717
 30
0.0
 11
76.6258
 21
22.5185
 31
0.0
  0
LINE
  8
0
 62
     0
 10
76.6258
 20
22.5185
 30
0.0
 11
77.4252
 21
22.5185
 31
0.0
  0
LINE
  8
0
 62
     0
 10
77.4252
 20
22.5185
 30
0.0
 11
77.4252
 21
25.6191
 31
0.0
  0
LINE
  8
0
 62
     0
 10
77.4252
 20
25.6191
 30
0.0
 11
76.6258
 21
25.6191
 31
0.0
  0
LINE
  8
0
 62
     0
 10
76.6258
 20
25.6191
 30
0.0
 11
76.6258
 21
26.6182
 31
0.0
  0
LINE
  8
0
 62
     0
 10
76.6258
 20
26.6182
 30
0.0
 11
62.6262
 21
26.6182
 31
0.0
  0
LINE
  8
0
 62
     0
 10
205.501
 20
26.6182
 30
0.0
 11
205.501
 21
25.6191
 31
0.0
  0
LINE
  8
0
 62
     0
 10
205.501
 20
25.6191
 30
0.0
 11
204.701
 21
25.6191
 31
0.0
  0
LINE
  8
0
 62
     0
 10
204.701
 20
25.6191
 30
0.0
 11
204.701
 21
22.5185
 31
0.0
  0
LINE
  8
0
 62
     0
 10
204.701
 20
22.5185
 30
0.0
 11
205.501
 21
22.5185
 31
0.0
  0
LINE
  8
0
 62
     0
 10
205.501
 20
22.5185
 30
0.0
 11
205.501
 21
16.717
 31
0.0
  0
LINE
  8
0
 62
     0
 10
205.501
 20
16.717
 30
0.0
 11
204.701
 21
16.717
 31
0.0
  0
LINE
  8
0
 62
     0
 10
204.701
 20
16.717
 30
0.0
 11
204.701
 21
13.6178
 31
0.0
  0
LINE
  8
0
 62
     0
 10
204.701
 20
13.6178
 30
0.0
 11
205.501
 21
13.6178
 31
0.0
  0
LINE
  8
0
 62
     0
 10
205.501
 20
13.6178
 30
0.0
 11
205.501
 21
12.6173
 31
0.0
  0
LINE
  8
0
 62
     0
 10
205.501
 20
12.6173
 30
0.0
 11
219.501
 21
12.6173
 31
0.0
  0
LINE
  8
0
 62
     0
 10
219.501
 20
12.6173
 30
0.0
 11
219.501
 21
13.6178
 31
0.0
  0
LINE
  8
0
 62
     0
 10
219.501
 20
13.6178
 30
0.0
 11
220.3
 21
13.6178
 31
0.0
  0
LINE
  8
0
 62
     0
 10
220.3
 20
13.6178
 30
0.0
 11
220.3
 21
16.717
 31
0.0
  0
LINE
  8
0
 62
     0
 10
220.3
 20
16.717
 30
0.0
 11
219.501
 21
16.717
 31
0.0
  0
LINE
  8
0
 62
     0
 10
219.501
 20
16.717
 30
0.0
 11
219.501
 21
22.5185
 31
0.0
  0
LINE
  8
0
 62
     0
 10
219.501
 20
22.5185
 30
0.0
 11
220.3
 21
22.5185
 31
0.0
  0
LINE
  8
0
 62
     0
 10
220.3
 20
22.5185
 30
0.0
 11
220.3
 21
25.6191
 31
0.0
  0
LINE
  8
0
 62
     0
 10
220.3
 20
25.6191
 30
0.0
 11
219.501
 21
25.6191
 31
0.0
  0
LINE
  8
0
 62
     0
 10
219.501
 20
25.6191
 30
0.0
 11
219.501
 21
26.6182
 31
0.0
  0
LINE
  8
0
 62
     0
 10
219.501
 20
26.6182
 30
0.0
 11
205.501
 21
26.6182
 31
0.0
  0
LINE
  8
0
 62
     0
 10
229.313
 20
26.6182
 30
0.0
 11
229.313
 21
25.6191
 31
0.0
  0
LINE
  8
0
 62
     0
 10
229.313
 20
25.6191
 30
0.0
 11
228.513
 21
25.6191
 31
0.0
  0
LINE
  8
0
 62
     0
 10
228.513
 20
25.6191
 30
0.0
 11
228.513
 21
22.5185
 31
0.0
  0
LINE
  8
0
 62
     0
 10
228.513
 20
22.5185
 30
0.0
 11
229.313
 21
22.5185
 31
0.0
  0
LINE
  8
0
 62
     0
 10
229.313
 20
22.5185
 30
0.0
 11
229.313
 21
16.717
 31
0.0
  0
LINE
  8
0
 62
     0
 10
229.313
 20
16.717
 30
0.0
 11
228.513
 21
16.717
 31
0.0
  0
LINE
  8
0
 62
     0
 10
228.513
 20
16.717
 30
0.0
 11
228.513
 21
13.6178
 31
0.0
  0
LINE
  8
0
 62
     0
 10
228.513
 20
13.6178
 30
0.0
 11
229.313
 21
13.6178
 31
0.0
  0
LINE
  8
0
 62
     0
 10
229.313
 20
13.6178
 30
0.0
 11
229.313
 21
12.6173
 31
0.0
  0
LINE
  8
0
 62
     0
 10
229.313
 20
12.6173
 30
0.0
 11
243.313
 21
12.6173
 31
0.0
  0
LINE
  8
0
 62
     0
 10
243.313
 20
12.6173
 30
0.0
 11
243.313
 21
13.6178
 31
0.0
  0
LINE
  8
0
 62
     0
 10
243.313
 20
13.6178
 30
0.0
 11
244.113
 21
13.6178
 31
0.0
  0
LINE
  8
0
 62
     0
 10
244.113
 20
13.6178
 30
0.0
 11
244.113
 21
16.717
 31
0.0
  0
LINE
  8
0
 62
     0
 10
244.113
 20
16.717
 30
0.0
 11
243.313
 21
16.717
 31
0.0
  0
LINE
  8
0
 62
     0
 10
243.313
 20
16.717
 30
0.0
 11
243.313
 21
22.5185
 31
0.0
  0
LINE
  8
0
 62
     0
 10
243.313
 20
22.5185
 30
0.0
 11
244.113
 21
22.5185
 31
0.0
  0
LINE
  8
0
 62
     0
 10
244.113
 20
22.5185
 30
0.0
 11
244.113
 21
25.6191
 31
0.0
  0
LINE
  8
0
 62
     0
 10
244.113
 20
25.6191
 30
0.0
 11
243.313
 21
25.6191
 31
0.0
  0
LINE
  8
0
 62
     0
 10
243.313
 20
25.6191
 30
0.0
 11
243.313
 21
26.6182
 31
0.0
  0
LINE
  8
0
 62
     0
 10
243.313
 20
26.6182
 30
0.0
 11
229.313
 21
26.6182
 31
0.0
  0
LINE
  8
0
 62
     0
 10
253.126
 20
26.6182
 30
0.0
 11
253.126
 21
25.6191
 31
0.0
  0
LINE
  8
0
 62
     0
 10
253.126
 20
25.6191
 30
0.0
 11
252.326
 21
25.6191
 31
0.0
  0
LINE
  8
0
 62
     0
 10
252.326
 20
25.6191
 30
0.0
 11
252.326
 21
22.5185
 31
0.0
  0
LINE
  8
0
 62
     0
 10
252.326
 20
22.5185
 30
0.0
 11
253.126
 21
22.5185
 31
0.0
  0
LINE
  8
0
 62
     0
 10
253.126
 20
22.5185
 30
0.0
 11
253.126
 21
16.717
 31
0.0
  0
LINE
  8
0
 62
     0
 10
253.126
 20
16.717
 30
0.0
 11
252.326
 21
16.717
 31
0.0
  0
LINE
  8
0
 62
     0
 10
252.326
 20
16.717
 30
0.0
 11
252.326
 21
13.6178
 31
0.0
  0
LINE
  8
0
 62
     0
 10
252.326
 20
13.6178
 30
0.0
 11
253.126
 21
13.6178
 31
0.0
  0
LINE
  8
0
 62
     0
 10
253.126
 20
13.6178
 30
0.0
 11
253.126
 21
12.6173
 31
0.0
  0
LINE
  8
0
 62
     0
 10
253.126
 20
12.6173
 30
0.0
 11
267.126
 21
12.6173
 31
0.0
  0
LINE
  8
0
 62
     0
 10
267.126
 20
12.6173
 30
0.0
 11
267.126
 21
13.6178
 31
0.0
  0
LINE
  8
0
 62
     0
 10
267.126
 20
13.6178
 30
0.0
 11
267.925
 21
13.6178
 31
0.0
  0
LINE
  8
0
 62
     0
 10
267.925
 20
13.6178
 30
0.0
 11
267.925
 21
16.717
 31
0.0
  0
LINE
  8
0
 62
     0
 10
267.925
 20
16.717
 30
0.0
 11
267.126
 21
16.717
 31
0.0
  0
LINE
  8
0
 62
     0
 10
267.126
 20
16.717
 30
0.0
 11
267.126
 21
22.5185
 31
0.0
  0
LINE
  8
0
 62
     0
 10
267.126
 20
22.5185
 30
0.0
 11
267.925
 21
22.5185
 31
0.0
  0
LINE
  8
0
 62
     0
 10
267.925
 20
22.5185
 30
0.0
 11
267.925
 21
25.6191
 31
0.0
  0
LINE
  8
0
 62
     0
 10
267.925
 20
25.6191
 30
0.0
 11
267.126
 21
25.6191
 31
0.0
  0
LINE
  8
0
 62
     0
 10
267.126
 20
25.6191
 30
0.0
 11
267.126
 21
26.6182
 31
0.0
  0
LINE
  8
0
 62
     0
 10
267.126
 20
26.6182
 30
0.0
 11
253.126
 21
26.6182
 31
0.0
  0
LINE
  8
0
 62
     0
 10
284.081
 20
26.6182
 30
0.0
 11
284.081
 21
25.6191
 31
0.0
  0
LINE
  8
0
 62
     0
 10
284.081
 20
25.6191
 30
0.0
 11
283.282
 21
25.6191
 31
0.0
  0
LINE
  8
0
 62
     0
 10
283.282
 20
25.6191
 30
0.0
 11
283.282
 21
22.5185
 31
0.0
  0
LINE
  8
0
 62
     0
 10
283.282
 20
22.5185
 30
0.0
 11
284.081
 21
22.5185
 31
0.0
  0
LINE
  8
0
 62
     0
 10
284.081
 20
22.5185
 30
0.0
 11
284.081
 21
16.717
 31
0.0
  0
LINE
  8
0
 62
     0
 10
284.081
 20
16.717
 30
0.0
 11
283.282
 21
16.717
 31
0.0
  0
LINE
  8
0
 62
     0
 10
283.282
 20
16.717
 30
0.0
 11
283.282
 21
13.6178
 31
0.0
  0
LINE
  8
0
 62
     0
 10
283.282
 20
13.6178
 30
0.0
 11
284.081
 21
13.6178
 31
0.0
  0
LINE
  8
0
 62
     0
 10
284.081
 20
13.6178
 30
0.0
 11
284.081
 21
12.6173
 31
0.0
  0
LINE
  8
0
 62
     0
 10
284.081
 20
12.6173
 30
0.0
 11
298.082
 21
12.6173
 31
0.0
  0
LINE
  8
0
 62
     0
 10
298.082
 20
12.6173
 30
0.0
 11
298.082
 21
13.6178
 31
0.0
  0
LINE
  8
0
 62
     0
 10
298.082
 20
13.6178
 30
0.0
 11
298.881
 21
13.6178
 31
0.0
  0
LINE
  8
0
 62
     0
 10
298.881
 20
13.6178
 30
0.0
 11
298.881
 21
16.717
 31
0.0
  0
LINE
  8
0
 62
     0
 10
298.881
 20
16.717
 30
0.0
 11
298.082
 21
16.717
 31
0.0
  0
LINE
  8
0
 62
     0
 10
298.082
 20
16.717
 30
0.0
 11
298.082
 21
22.5185
 31
0.0
  0
LINE
  8
0
 62
     0
 10
298.082
 20
22.5185
 30
0.0
 11
298.881
 21
22.5185
 31
0.0
  0
LINE
  8
0
 62
     0
 10
298.881
 20
22.5185
 30
0.0
 11
298.881
 21
25.6191
 31
0.0
  0
LINE
  8
0
 62
     0
 10
298.881
 20
25.6191
 30
0.0
 11
298.082
 21
25.6191
 31
0.0
  0
LINE
  8
0
 62
     0
 10
298.082
 20
25.6191
 30
0.0
 11
298.082
 21
26.6182
 31
0.0
  0
LINE
  8
0
 62
     0
 10
298.082
 20
26.6182
 30
0.0
 11
284.081
 21
26.6182
 31
0.0
  0
LINE
  8
0
 62
     0
 10
303.131
 20
26.6182
 30
0.0
 11
303.131
 21
25.6191
 31
0.0
  0
LINE
  8
0
 62
     0
 10
303.131
 20
25.6191
 30
0.0
 11
302.332
 21
25.6191
 31
0.0
  0
LINE
  8
0
 62
     0
 10
302.332
 20
25.6191
 30
0.0
 11
302.332
 21
22.5185
 31
0.0
  0
LINE
  8
0
 62
     0
 10
302.332
 20
22.5185
 30
0.0
 11
303.131
 21
22.5185
 31
0.0
  0
LINE
  8
0
 62
     0
 10
303.131
 20
22.5185
 30
0.0
 11
303.131
 21
16.717
 31
0.0
  0
LINE
  8
0
 62
     0
 10
303.131
 20
16.717
 30
0.0
 11
302.332
 21
16.717
 31
0.0
  0
LINE
  8
0
 62
     0
 10
302.332
 20
16.717
 30
0.0
 11
302.332
 21
13.6178
 31
0.0
  0
LINE
  8
0
 62
     0
 10
302.332
 20
13.6178
 30
0.0
 11
303.131
 21
13.6178
 31
0.0
  0
LINE
  8
0
 62
     0
 10
303.131
 20
13.6178
 30
0.0
 11
303.131
 21
12.6173
 31
0.0
  0
LINE
  8
0
 62
     0
 10
303.131
 20
12.6173
 30
0.0
 11
317.132
 21
12.6173
 31
0.0
  0
LINE
  8
0
 62
     0
 10
317.132
 20
12.6173
 30
0.0
 11
317.132
 21
13.6178
 31
0.0
  0
LINE
  8
0
 62
     0
 10
317.132
 20
13.6178
 30
0.0
 11
317.931
 21
13.6178
 31
0.0
  0
LINE
  8
0
 62
     0
 10
317.931
 20
13.6178
 30
0.0
 11
317.931
 21
16.717
 31
0.0
  0
LINE
  8
0
 62
     0
 10
317.931
 20
16.717
 30
0.0
 11
317.132
 21
16.717
 31
0.0
  0
LINE
  8
0
 62
     0
 10
317.132
 20
16.717
 30
0.0
 11
317.132
 21
22.5185
 31
0.0
  0
LINE
  8
0
 62
     0
 10
317.132
 20
22.5185
 30
0.0
 11
317.931
 21
22.5185
 31
0.0
  0
LINE
  8
0
 62
     0
 10
317.931
 20
22.5185
 30
0.0
 11
317.931
 21
25.6191
 31
0.0
  0
LINE
  8
0
 62
     0
 10
317.931
 20
25.6191
 30
0.0
 11
317.132
 21
25.6191
 31
0.0
  0
LINE
  8
0
 62
     0
 10
317.132
 20
25.6191
 30
0.0
 11
317.132
 21
26.6182
 31
0.0
  0
LINE
  8
0
 62
     0
 10
317.132
 20
26.6182
 30
0.0
 11
303.131
 21
26.6182
 31
0.0
  0
LINE
  8
0
 62
     0
 10
322.181
 20
26.6182
 30
0.0
 11
322.181
 21
25.6191
 31
0.0
  0
LINE
  8
0
 62
     0
 10
322.181
 20
25.6191
 30
0.0
 11
321.382
 21
25.6191
 31
0.0
  0
LINE
  8
0
 62
     0
 10
321.382
 20
25.6191
 30
0.0
 11
321.382
 21
22.5185
 31
0.0
  0
LINE
  8
0
 62
     0
 10
321.382
 20
22.5185
 30
0.0
 11
322.181
 21
22.5185
 31
0.0
  0
LINE
  8
0
 62
     0
 10
322.181
 20
22.5185
 30
0.0
 11
322.181
 21
16.717
 31
0.0
  0
LINE
  8
0
 62
     0
 10
322.181
 20
16.717
 30
0.0
 11
321.382
 21
16.717
 31
0.0
  0
LINE
  8
0
 62
     0
 10
321.382
 20
16.717
 30
0.0
 11
321.382
 21
13.6178
 31
0.0
  0
LINE
  8
0
 62
     0
 10
321.382
 20
13.6178
 30
0.0
 11
322.181
 21
13.6178
 31
0.0
  0
LINE
  8
0
 62
     0
 10
322.181
 20
13.6178
 30
0.0
 11
322.181
 21
12.6173
 31
0.0
  0
LINE
  8
0
 62
     0
 10
322.181
 20
12.6173
 30
0.0
 11
336.182
 21
12.6173
 31
0.0
  0
LINE
  8
0
 62
     0
 10
336.182
 20
12.6173
 30
0.0
 11
336.182
 21
13.6178
 31
0.0
  0
LINE
  8
0
 62
     0
 10
336.182
 20
13.6178
 30
0.0
 11
336.981
 21
13.6178
 31
0.0
  0
LINE
  8
0
 62
     0
 10
336.981
 20
13.6178
 30
0.0
 11
336.981
 21
16.717
 31
0.0
  0
LINE
  8
0
 62
     0
 10
336.981
 20
16.717
 30
0.0
 11
336.182
 21
16.717
 31
0.0
  0
LINE
  8
0
 62
     0
 10
336.182
 20
16.717
 30
0.0
 11
336.182
 21
22.5185
 31
0.0
  0
LINE
  8
0
 62
     0
 10
336.182
 20
22.5185
 30
0.0
 11
336.981
 21
22.5185
 31
0.0
  0
LINE
  8
0
 62
     0
 10
336.981
 20
22.5185
 30
0.0
 11
336.981
 21
25.6191
 31
0.0
  0
LINE
  8
0
 62
     0
 10
336.981
 20
25.6191
 30
0.0
 11
336.182
 21
25.6191
 31
0.0
  0
LINE
  8
0
 62
     0
 10
336.182
 20
25.6191
 30
0.0
 11
336.182
 21
26.6182
 31
0.0
  0
LINE
  8
0
 62
     0
 10
336.182
 20
26.6182
 30
0.0
 11
322.181
 21
26.6182
 31
0.0
  0
LINE
  8
0
 62
     0
 10
24.5263
 20
45.6681
 30
0.0
 11
24.5263
 21
44.6691
 31
0.0
  0
LINE
  8
0
 62
     0
 10
24.5263
 20
44.6691
 30
0.0
 11
23.7257
 21
44.6691
 31
0.0
  0
LINE
  8
0
 62
     0
 10
23.7257
 20
44.6691
 30
0.0
 11
23.7257
 21
41.5685
 31
0.0
  0
LINE
  8
0
 62
     0
 10
23.7257
 20
41.5685
 30
0.0
 11
24.5263
 21
41.5685
 31
0.0
  0
LINE
  8
0
 62
     0
 10
24.5263
 20
41.5685
 30
0.0
 11
24.5263
 21
40.9677
 31
0.0
  0
LINE
  8
0
 62
     0
 10
24.5263
 20
40.9677
 30
0.0
 11
23.0008
 21
40.9677
 31
0.0
  0
LINE
  8
0
 62
     0
 10
23.0008
 20
40.9677
 30
0.0
 11
23.0008
 21
44.1978
 31
0.0
  0
LINE
  8
0
 62
     0
 10
23.0008
 20
44.1978
 30
0.0
 11
21.2755
 21
44.1978
 31
0.0
  0
LINE
  8
0
 62
     0
 10
21.2755
 20
44.1978
 30
0.0
 11
21.2755
 21
45.1171
 31
0.0
  0
LINE
  8
0
 62
     0
 10
21.2755
 20
45.1171
 30
0.0
 11
17.9751
 21
45.1171
 31
0.0
  0
LINE
  8
0
 62
     0
 10
17.9751
 20
45.1171
 30
0.0
 11
17.9751
 21
44.1978
 31
0.0
  0
LINE
  8
0
 62
     0
 10
17.9751
 20
44.1978
 30
0.0
 11
16.2512
 21
44.1978
 31
0.0
  0
LINE
  8
0
 62
     0
 10
16.2512
 20
44.1978
 30
0.0
 11
16.2512
 21
40.9677
 31
0.0
  0
LINE
  8
0
 62
     0
 10
16.2512
 20
40.9677
 30
0.0
 11
15.4258
 21
40.9677
 31
0.0
  0
LINE
  8
0
 62
     0
 10
15.4258
 20
40.9677
 30
0.0
 11
15.4258
 21
38.1688
 31
0.0
  0
LINE
  8
0
 62
     0
 10
15.4258
 20
38.1688
 30
0.0
 11
16.2512
 21
38.1688
 31
0.0
  0
LINE
  8
0
 62
     0
 10
16.2512
 20
38.1688
 30
0.0
 11
16.2512
 21
31.8975
 31
0.0
  0
LINE
  8
0
 62
     0
 10
16.2512
 20
31.8975
 30
0.0
 11
17.9751
 21
31.8975
 31
0.0
  0
LINE
  8
0
 62
     0
 10
17.9751
 20
31.8975
 30
0.0
 11
17.9751
 21
30.9177
 31
0.0
  0
LINE
  8
0
 62
     0
 10
17.9751
 20
30.9177
 30
0.0
 11
21.2755
 21
30.9177
 31
0.0
  0
LINE
  8
0
 62
     0
 10
21.2755
 20
30.9177
 30
0.0
 11
21.2755
 21
31.8975
 31
0.0
  0
LINE
  8
0
 62
     0
 10
21.2755
 20
31.8975
 30
0.0
 11
23.0008
 21
31.8975
 31
0.0
  0
LINE
  8
0
 62
     0
 10
23.0008
 20
31.8975
 30
0.0
 11
23.0008
 21
36.3679
 31
0.0
  0
LINE
  8
0
 62
     0
 10
23.0008
 20
36.3679
 30
0.0
 11
24.5263
 21
36.3679
 31
0.0
  0
LINE
  8
0
 62
     0
 10
24.5263
 20
36.3679
 30
0.0
 11
24.5263
 21
35.7671
 31
0.0
  0
LINE
  8
0
 62
     0
 10
24.5263
 20
35.7671
 30
0.0
 11
23.7257
 21
35.7671
 31
0.0
  0
LINE
  8
0
 62
     0
 10
23.7257
 20
35.7671
 30
0.0
 11
23.7257
 21
32.6678
 31
0.0
  0
LINE
  8
0
 62
     0
 10
23.7257
 20
32.6678
 30
0.0
 11
24.5263
 21
32.6678
 31
0.0
  0
LINE
  8
0
 62
     0
 10
24.5263
 20
32.6678
 30
0.0
 11
24.5263
 21
31.6673
 31
0.0
  0
LINE
  8
0
 62
     0
 10
24.5263
 20
31.6673
 30
0.0
 11
38.5258
 21
31.6673
 31
0.0
  0
LINE
  8
0
 62
     0
 10
38.5258
 20
31.6673
 30
0.0
 11
38.5258
 21
32.6678
 31
0.0
  0
LINE
  8
0
 62
     0
 10
38.5258
 20
32.6678
 30
0.0
 11
39.3252
 21
32.6678
 31
0.0
  0
LINE
  8
0
 62
     0
 10
39.3252
 20
32.6678
 30
0.0
 11
39.3252
 21
35.7671
 31
0.0
  0
LINE
  8
0
 62
     0
 10
39.3252
 20
35.7671
 30
0.0
 11
38.5258
 21
35.7671
 31
0.0
  0
LINE
  8
0
 62
     0
 10
38.5258
 20
35.7671
 30
0.0
 11
38.5258
 21
36.3679
 31
0.0
  0
LINE
  8
0
 62
     0
 10
38.5258
 20
36.3679
 30
0.0
 11
40.0512
 21
36.3679
 31
0.0
  0
LINE
  8
0
 62
     0
 10
40.0512
 20
36.3679
 30
0.0
 11
40.0512
 21
31.8975
 31
0.0
  0
LINE
  8
0
 62
     0
 10
40.0512
 20
31.8975
 30
0.0
 11
41.7752
 21
31.8975
 31
0.0
  0
LINE
  8
0
 62
     0
 10
41.7752
 20
31.8975
 30
0.0
 11
41.7752
 21
30.9177
 31
0.0
  0
LINE
  8
0
 62
     0
 10
41.7752
 20
30.9177
 30
0.0
 11
45.0755
 21
30.9177
 31
0.0
  0
LINE
  8
0
 62
     0
 10
45.0755
 20
30.9177
 30
0.0
 11
45.0755
 21
31.8975
 31
0.0
  0
LINE
  8
0
 62
     0
 10
45.0755
 20
31.8975
 30
0.0
 11
46.8009
 21
31.8975
 31
0.0
  0
LINE
  8
0
 62
     0
 10
46.8009
 20
31.8975
 30
0.0
 11
46.8009
 21
38.1688
 31
0.0
  0
LINE
  8
0
 62
     0
 10
46.8009
 20
38.1688
 30
0.0
 11
47.6264
 21
38.1688
 31
0.0
  0
LINE
  8
0
 62
     0
 10
47.6264
 20
38.1688
 30
0.0
 11
47.6264
 21
40.9677
 31
0.0
  0
LINE
  8
0
 62
     0
 10
47.6264
 20
40.9677
 30
0.0
 11
46.8009
 21
40.9677
 31
0.0
  0
LINE
  8
0
 62
     0
 10
46.8009
 20
40.9677
 30
0.0
 11
46.8009
 21
44.1978
 31
0.0
  0
LINE
  8
0
 62
     0
 10
46.8009
 20
44.1978
 30
0.0
 11
45.0755
 21
44.1978
 31
0.0
  0
LINE
  8
0
 62
     0
 10
45.0755
 20
44.1978
 30
0.0
 11
45.0755
 21
45.1171
 31
0.0
  0
LINE
  8
0
 62
     0
 10
45.0755
 20
45.1171
 30
0.0
 11
41.7752
 21
45.1171
 31
0.0
  0
LINE
  8
0
 62
     0
 10
41.7752
 20
45.1171
 30
0.0
 11
41.7752
 21
44.1978
 31
0.0
  0
LINE
  8
0
 62
     0
 10
41.7752
 20
44.1978
 30
0.0
 11
40.0512
 21
44.1978
 31
0.0
  0
LINE
  8
0
 62
     0
 10
40.0512
 20
44.1978
 30
0.0
 11
40.0512
 21
40.9677
 31
0.0
  0
LINE
  8
0
 62
     0
 10
40.0512
 20
40.9677
 30
0.0
 11
38.5258
 21
40.9677
 31
0.0
  0
LINE
  8
0
 62
     0
 10
38.5258
 20
40.9677
 30
0.0
 11
38.5258
 21
41.5685
 31
0.0
  0
LINE
  8
0
 62
     0
 10
38.5258
 20
41.5685
 30
0.0
 11
39.3252
 21
41.5685
 31
0.0
  0
LINE
  8
0
 62
     0
 10
39.3252
 20
41.5685
 30
0.0
 11
39.3252
 21
44.6691
 31
0.0
  0
LINE
  8
0
 62
     0
 10
39.3252
 20
44.6691
 30
0.0
 11
38.5258
 21
44.6691
 31
0.0
  0
LINE
  8
0
 62
     0
 10
38.5258
 20
44.6691
 30
0.0
 11
38.5258
 21
45.6681
 31
0.0
  0
LINE
  8
0
 62
     0
 10
38.5258
 20
45.6681
 30
0.0
 11
24.5263
 21
45.6681
 31
0.0
  0
LINE
  8
0
 62
     0
 10
262.651
 20
45.6681
 30
0.0
 11
262.651
 21
44.6691
 31
0.0
  0
LINE
  8
0
 62
     0
 10
262.651
 20
44.6691
 30
0.0
 11
261.851
 21
44.6691
 31
0.0
  0
LINE
  8
0
 62
     0
 10
261.851
 20
44.6691
 30
0.0
 11
261.851
 21
41.5685
 31
0.0
  0
LINE
  8
0
 62
     0
 10
261.851
 20
41.5685
 30
0.0
 11
262.651
 21
41.5685
 31
0.0
  0
LINE
  8
0
 62
     0
 10
262.651
 20
41.5685
 30
0.0
 11
262.651
 21
40.9677
 31
0.0
  0
LINE
  8
0
 62
     0
 10
262.651
 20
40.9677
 30
0.0
 11
261.126
 21
40.9677
 31
0.0
  0
LINE
  8
0
 62
     0
 10
261.126
 20
40.9677
 30
0.0
 11
261.126
 21
44.1978
 31
0.0
  0
LINE
  8
0
 62
     0
 10
261.126
 20
44.1978
 30
0.0
 11
259.401
 21
44.1978
 31
0.0
  0
LINE
  8
0
 62
     0
 10
259.401
 20
44.1978
 30
0.0
 11
259.401
 21
45.1171
 31
0.0
  0
LINE
  8
0
 62
     0
 10
259.401
 20
45.1171
 30
0.0
 11
256.1
 21
45.1171
 31
0.0
  0
LINE
  8
0
 62
     0
 10
256.1
 20
45.1171
 30
0.0
 11
256.1
 21
44.1978
 31
0.0
  0
LINE
  8
0
 62
     0
 10
256.1
 20
44.1978
 30
0.0
 11
254.376
 21
44.1978
 31
0.0
  0
LINE
  8
0
 62
     0
 10
254.376
 20
44.1978
 30
0.0
 11
254.376
 21
40.9677
 31
0.0
  0
LINE
  8
0
 62
     0
 10
254.376
 20
40.9677
 30
0.0
 11
253.551
 21
40.9677
 31
0.0
  0
LINE
  8
0
 62
     0
 10
253.551
 20
40.9677
 30
0.0
 11
253.551
 21
38.1688
 31
0.0
  0
LINE
  8
0
 62
     0
 10
253.551
 20
38.1688
 30
0.0
 11
254.376
 21
38.1688
 31
0.0
  0
LINE
  8
0
 62
     0
 10
254.376
 20
38.1688
 30
0.0
 11
254.376
 21
31.8975
 31
0.0
  0
LINE
  8
0
 62
     0
 10
254.376
 20
31.8975
 30
0.0
 11
256.1
 21
31.8975
 31
0.0
  0
LINE
  8
0
 62
     0
 10
256.1
 20
31.8975
 30
0.0
 11
256.1
 21
30.9177
 31
0.0
  0
LINE
  8
0
 62
     0
 10
256.1
 20
30.9177
 30
0.0
 11
259.401
 21
30.9177
 31
0.0
  0
LINE
  8
0
 62
     0
 10
259.401
 20
30.9177
 30
0.0
 11
259.401
 21
31.8975
 31
0.0
  0
LINE
  8
0
 62
     0
 10
259.401
 20
31.8975
 30
0.0
 11
261.126
 21
31.8975
 31
0.0
  0
LINE
  8
0
 62
     0
 10
261.126
 20
31.8975
 30
0.0
 11
261.126
 21
36.3679
 31
0.0
  0
LINE
  8
0
 62
     0
 10
261.126
 20
36.3679
 30
0.0
 11
262.651
 21
36.3679
 31
0.0
  0
LINE
  8
0
 62
     0
 10
262.651
 20
36.3679
 30
0.0
 11
262.651
 21
35.7671
 31
0.0
  0
LINE
  8
0
 62
     0
 10
262.651
 20
35.7671
 30
0.0
 11
261.851
 21
35.7671
 31
0.0
  0
LINE
  8
0
 62
     0
 10
261.851
 20
35.7671
 30
0.0
 11
261.851
 21
32.6678
 31
0.0
  0
LINE
  8
0
 62
     0
 10
261.851
 20
32.6678
 30
0.0
 11
262.651
 21
32.6678
 31
0.0
  0
LINE
  8
0
 62
     0
 10
262.651
 20
32.6678
 30
0.0
 11
262.651
 21
31.6673
 31
0.0
  0
LINE
  8
0
 62
     0
 10
262.651
 20
31.6673
 30
0.0
 11
276.651
 21
31.6673
 31
0.0
  0
LINE
  8
0
 62
     0
 10
276.651
 20
31.6673
 30
0.0
 11
276.651
 21
32.6678
 31
0.0
  0
LINE
  8
0
 62
     0
 10
276.651
 20
32.6678
 30
0.0
 11
277.45
 21
32.6678
 31
0.0
  0
LINE
  8
0
 62
     0
 10
277.45
 20
32.6678
 30
0.0
 11
277.45
 21
35.7671
 31
0.0
  0
LINE
  8
0
 62
     0
 10
277.45
 20
35.7671
 30
0.0
 11
276.651
 21
35.7671
 31
0.0
  0
LINE
  8
0
 62
     0
 10
276.651
 20
35.7671
 30
0.0
 11
276.651
 21
36.3679
 31
0.0
  0
LINE
  8
0
 62
     0
 10
276.651
 20
36.3679
 30
0.0
 11
278.176
 21
36.3679
 31
0.0
  0
LINE
  8
0
 62
     0
 10
278.176
 20
36.3679
 30
0.0
 11
278.176
 21
31.8975
 31
0.0
  0
LINE
  8
0
 62
     0
 10
278.176
 20
31.8975
 30
0.0
 11
279.9
 21
31.8975
 31
0.0
  0
LINE
  8
0
 62
     0
 10
279.9
 20
31.8975
 30
0.0
 11
279.9
 21
30.9177
 31
0.0
  0
LINE
  8
0
 62
     0
 10
279.9
 20
30.9177
 30
0.0
 11
283.2
 21
30.9177
 31
0.0
  0
LINE
  8
0
 62
     0
 10
283.2
 20
30.9177
 30
0.0
 11
283.2
 21
31.8975
 31
0.0
  0
LINE
  8
0
 62
     0
 10
283.2
 20
31.8975
 30
0.0
 11
284.926
 21
31.8975
 31
0.0
  0
LINE
  8
0
 62
     0
 10
284.926
 20
31.8975
 30
0.0
 11
284.926
 21
38.1688
 31
0.0
  0
LINE
  8
0
 62
     0
 10
284.926
 20
38.1688
 30
0.0
 11
285.751
 21
38.1688
 31
0.0
  0
LINE
  8
0
 62
     0
 10
285.751
 20
38.1688
 30
0.0
 11
285.751
 21
40.9677
 31
0.0
  0
LINE
  8
0
 62
     0
 10
285.751
 20
40.9677
 30
0.0
 11
284.926
 21
40.9677
 31
0.0
  0
LINE
  8
0
 62
     0
 10
284.926
 20
40.9677
 30
0.0
 11
284.926
 21
44.1978
 31
0.0
  0
LINE
  8
0
 62
     0
 10
284.926
 20
44.1978
 30
0.0
 11
283.2
 21
44.1978
 31
0.0
  0
LINE
  8
0
 62
     0
 10
283.2
 20
44.1978
 30
0.0
 11
283.2
 21
45.1171
 31
0.0
  0
LINE
  8
0
 62
     0
 10
283.2
 20
45.1171
 30
0.0
 11
279.9
 21
45.1171
 31
0.0
  0
LINE
  8
0
 62
     0
 10
279.9
 20
45.1171
 30
0.0
 11
279.9
 21
44.1978
 31
0.0
  0
LINE
  8
0
 62
     0
 10
279.9
 20
44.1978
 30
0.0
 11
278.176
 21
44.1978
 31
0.0
  0
LINE
  8
0
 62
     0
 10
278.176
 20
44.1978
 30
0.0
 11
278.176
 21
40.9677
 31
0.0
  0
LINE
  8
0
 62
     0
 10
278.176
 20
40.9677
 30
0.0
 11
276.651
 21
40.9677
 31
0.0
  0
LINE
  8
0
 62
     0
 10
276.651
 20
40.9677
 30
0.0
 11
276.651
 21
41.5685
 31
0.0
  0
LINE
  8
0
 62
     0
 10
276.651
 20
41.5685
 30
0.0
 11
277.45
 21
41.5685
 31
0.0
  0
LINE
  8
0
 62
     0
 10
277.45
 20
41.5685
 30
0.0
 11
277.45
 21
44.6691
 31
0.0
  0
LINE
  8
0
 62
     0
 10
277.45
 20
44.6691
 30
0.0
 11
276.651
 21
44.6691
 31
0.0
  0
LINE
  8
0
 62
     0
 10
276.651
 20
44.6691
 30
0.0
 11
276.651
 21
45.6681
 31
0.0
  0
LINE
  8
0
 62
     0
 10
276.651
 20
45.6681
 30
0.0
 11
262.651
 21
45.6681
 31
0.0
  0
LINE
  8
0
 62
     0
 10
55.4814
 20
45.6681
 30
0.0
 11
55.4814
 21
44.6691
 31
0.0
  0
LINE
  8
0
 62
     0
 10
55.4814
 20
44.6691
 30
0.0
 11
54.682
 21
44.6691
 31
0.0
  0
LINE
  8
0
 62
     0
 10
54.682
 20
44.6691
 30
0.0
 11
54.682
 21
41.5685
 31
0.0
  0
LINE
  8
0
 62
     0
 10
54.682
 20
41.5685
 30
0.0
 11
55.4814
 21
41.5685
 31
0.0
  0
LINE
  8
0
 62
     0
 10
55.4814
 20
41.5685
 30
0.0
 11
55.4814
 21
35.7671
 31
0.0
  0
LINE
  8
0
 62
     0
 10
55.4814
 20
35.7671
 30
0.0
 11
54.682
 21
35.7671
 31
0.0
  0
LINE
  8
0
 62
     0
 10
54.682
 20
35.7671
 30
0.0
 11
54.682
 21
32.6678
 31
0.0
  0
LINE
  8
0
 62
     0
 10
54.682
 20
32.6678
 30
0.0
 11
55.4814
 21
32.6678
 31
0.0
  0
LINE
  8
0
 62
     0
 10
55.4814
 20
32.6678
 30
0.0
 11
55.4814
 21
31.6673
 31
0.0
  0
LINE
  8
0
 62
     0
 10
55.4814
 20
31.6673
 30
0.0
 11
69.4821
 21
31.6673
 31
0.0
  0
LINE
  8
0
 62
     0
 10
69.4821
 20
31.6673
 30
0.0
 11
69.4821
 21
32.6678
 31
0.0
  0
LINE
  8
0
 62
     0
 10
69.4821
 20
32.6678
 30
0.0
 11
70.2815
 21
32.6678
 31
0.0
  0
LINE
  8
0
 62
     0
 10
70.2815
 20
32.6678
 30
0.0
 11
70.2815
 21
35.7671
 31
0.0
  0
LINE
  8
0
 62
     0
 10
70.2815
 20
35.7671
 30
0.0
 11
69.4821
 21
35.7671
 31
0.0
  0
LINE
  8
0
 62
     0
 10
69.4821
 20
35.7671
 30
0.0
 11
69.4821
 21
41.5685
 31
0.0
  0
LINE
  8
0
 62
     0
 10
69.4821
 20
41.5685
 30
0.0
 11
70.2815
 21
41.5685
 31
0.0
  0
LINE
  8
0
 62
     0
 10
70.2815
 20
41.5685
 30
0.0
 11
70.2815
 21
44.6691
 31
0.0
  0
LINE
  8
0
 62
     0
 10
70.2815
 20
44.6691
 30
0.0
 11
69.4821
 21
44.6691
 31
0.0
  0
LINE
  8
0
 62
     0
 10
69.4821
 20
44.6691
 30
0.0
 11
69.4821
 21
45.6681
 31
0.0
  0
LINE
  8
0
 62
     0
 10
69.4821
 20
45.6681
 30
0.0
 11
55.4814
 21
45.6681
 31
0.0
  0
LINE
  8
0
 62
     0
 10
74.5314
 20
45.6681
 30
0.0
 11
74.5314
 21
44.6691
 31
0.0
  0
LINE
  8
0
 62
     0
 10
74.5314
 20
44.6691
 30
0.0
 11
73.732
 21
44.6691
 31
0.0
  0
LINE
  8
0
 62
     0
 10
73.732
 20
44.6691
 30
0.0
 11
73.732
 21
41.5685
 31
0.0
  0
LINE
  8
0
 62
     0
 10
73.732
 20
41.5685
 30
0.0
 11
74.5314
 21
41.5685
 31
0.0
  0
LINE
  8
0
 62
     0
 10
74.5314
 20
41.5685
 30
0.0
 11
74.5314
 21
35.7671
 31
0.0
  0
LINE
  8
0
 62
     0
 10
74.5314
 20
35.7671
 30
0.0
 11
73.732
 21
35.7671
 31
0.0
  0
LINE
  8
0
 62
     0
 10
73.732
 20
35.7671
 30
0.0
 11
73.732
 21
32.6678
 31
0.0
  0
LINE
  8
0
 62
     0
 10
73.732
 20
32.6678
 30
0.0
 11
74.5314
 21
32.6678
 31
0.0
  0
LINE
  8
0
 62
     0
 10
74.5314
 20
32.6678
 30
0.0
 11
74.5314
 21
31.6673
 31
0.0
  0
LINE
  8
0
 62
     0
 10
74.5314
 20
31.6673
 30
0.0
 11
88.5321
 21
31.6673
 31
0.0
  0
LINE
  8
0
 62
     0
 10
88.5321
 20
31.6673
 30
0.0
 11
88.5321
 21
32.6678
 31
0.0
  0
LINE
  8
0
 62
     0
 10
88.5321
 20
32.6678
 30
0.0
 11
89.3315
 21
32.6678
 31
0.0
  0
LINE
  8
0
 62
     0
 10
89.3315
 20
32.6678
 30
0.0
 11
89.3315
 21
35.7671
 31
0.0
  0
LINE
  8
0
 62
     0
 10
89.3315
 20
35.7671
 30
0.0
 11
88.5321
 21
35.7671
 31
0.0
  0
LINE
  8
0
 62
     0
 10
88.5321
 20
35.7671
 30
0.0
 11
88.5321
 21
41.5685
 31
0.0
  0
LINE
  8
0
 62
     0
 10
88.5321
 20
41.5685
 30
0.0
 11
89.3315
 21
41.5685
 31
0.0
  0
LINE
  8
0
 62
     0
 10
89.3315
 20
41.5685
 30
0.0
 11
89.3315
 21
44.6691
 31
0.0
  0
LINE
  8
0
 62
     0
 10
89.3315
 20
44.6691
 30
0.0
 11
88.5321
 21
44.6691
 31
0.0
  0
LINE
  8
0
 62
     0
 10
88.5321
 20
44.6691
 30
0.0
 11
88.5321
 21
45.6681
 31
0.0
  0
LINE
  8
0
 62
     0
 10
88.5321
 20
45.6681
 30
0.0
 11
74.5314
 21
45.6681
 31
0.0
  0
LINE
  8
0
 62
     0
 10
93.5814
 20
45.6681
 30
0.0
 11
93.5814
 21
44.6691
 31
0.0
  0
LINE
  8
0
 62
     0
 10
93.5814
 20
44.6691
 30
0.0
 11
92.782
 21
44.6691
 31
0.0
  0
LINE
  8
0
 62
     0
 10
92.782
 20
44.6691
 30
0.0
 11
92.782
 21
41.5685
 31
0.0
  0
LINE
  8
0
 62
     0
 10
92.782
 20
41.5685
 30
0.0
 11
93.5814
 21
41.5685
 31
0.0
  0
LINE
  8
0
 62
     0
 10
93.5814
 20
41.5685
 30
0.0
 11
93.5814
 21
35.7671
 31
0.0
  0
LINE
  8
0
 62
     0
 10
93.5814
 20
35.7671
 30
0.0
 11
92.782
 21
35.7671
 31
0.0
  0
LINE
  8
0
 62
     0
 10
92.782
 20
35.7671
 30
0.0
 11
92.782
 21
32.6678
 31
0.0
  0
LINE
  8
0
 62
     0
 10
92.782
 20
32.6678
 30
0.0
 11
93.5814
 21
32.6678
 31
0.0
  0
LINE
  8
0
 62
     0
 10
93.5814
 20
32.6678
 30
0.0
 11
93.5814
 21
31.6673
 31
0.0
  0
LINE
  8
0
 62
     0
 10
93.5814
 20
31.6673
 30
0.0
 11
107.582
 21
31.6673
 31
0.0
  0
LINE
  8
0
 62
     0
 10
107.582
 20
31.6673
 30
0.0
 11
107.582
 21
32.6678
 31
0.0
  0
LINE
  8
0
 62
     0
 10
107.582
 20
32.6678
 30
0.0
 11
108.381
 21
32.6678
 31
0.0
  0
LINE
  8
0
 62
     0
 10
108.381
 20
32.6678
 30
0.0
 11
108.381
 21
35.7671
 31
0.0
  0
LINE
  8
0
 62
     0
 10
108.381
 20
35.7671
 30
0.0
 11
107.582
 21
35.7671
 31
0.0
  0
LINE
  8
0
 62
     0
 10
107.582
 20
35.7671
 30
0.0
 11
107.582
 21
41.5685
 31
0.0
  0
LINE
  8
0
 62
     0
 10
107.582
 20
41.5685
 30
0.0
 11
108.381
 21
41.5685
 31
0.0
  0
LINE
  8
0
 62
     0
 10
108.381
 20
41.5685
 30
0.0
 11
108.381
 21
44.6691
 31
0.0
  0
LINE
  8
0
 62
     0
 10
108.381
 20
44.6691
 30
0.0
 11
107.582
 21
44.6691
 31
0.0
  0
LINE
  8
0
 62
     0
 10
107.582
 20
44.6691
 30
0.0
 11
107.582
 21
45.6681
 31
0.0
  0
LINE
  8
0
 62
     0
 10
107.582
 20
45.6681
 30
0.0
 11
93.5814
 21
45.6681
 31
0.0
  0
LINE
  8
0
 62
     0
 10
112.631
 20
45.6681
 30
0.0
 11
112.631
 21
44.6691
 31
0.0
  0
LINE
  8
0
 62
     0
 10
112.631
 20
44.6691
 30
0.0
 11
111.832
 21
44.6691
 31
0.0
  0
LINE
  8
0
 62
     0
 10
111.832
 20
44.6691
 30
0.0
 11
111.832
 21
41.5685
 31
0.0
  0
LINE
  8
0
 62
     0
 10
111.832
 20
41.5685
 30
0.0
 11
112.631
 21
41.5685
 31
0.0
  0
LINE
  8
0
 62
     0
 10
112.631
 20
41.5685
 30
0.0
 11
112.631
 21
35.7671
 31
0.0
  0
LINE
  8
0
 62
     0
 10
112.631
 20
35.7671
 30
0.0
 11
111.832
 21
35.7671
 31
0.0
  0
LINE
  8
0
 62
     0
 10
111.832
 20
35.7671
 30
0.0
 11
111.832
 21
32.6678
 31
0.0
  0
LINE
  8
0
 62
     0
 10
111.832
 20
32.6678
 30
0.0
 11
112.631
 21
32.6678
 31
0.0
  0
LINE
  8
0
 62
     0
 10
112.631
 20
32.6678
 30
0.0
 11
112.631
 21
31.6673
 31
0.0
  0
LINE
  8
0
 62
     0
 10
112.631
 20
31.6673
 30
0.0
 11
126.632
 21
31.6673
 31
0.0
  0
LINE
  8
0
 62
     0
 10
126.632
 20
31.6673
 30
0.0
 11
126.632
 21
32.6678
 31
0.0
  0
LINE
  8
0
 62
     0
 10
126.632
 20
32.6678
 30
0.0
 11
127.431
 21
32.6678
 31
0.0
  0
LINE
  8
0
 62
     0
 10
127.431
 20
32.6678
 30
0.0
 11
127.431
 21
35.7671
 31
0.0
  0
LINE
  8
0
 62
     0
 10
127.431
 20
35.7671
 30
0.0
 11
126.632
 21
35.7671
 31
0.0
  0
LINE
  8
0
 62
     0
 10
126.632
 20
35.7671
 30
0.0
 11
126.632
 21
41.5685
 31
0.0
  0
LINE
  8
0
 62
     0
 10
126.632
 20
41.5685
 30
0.0
 11
127.431
 21
41.5685
 31
0.0
  0
LINE
  8
0
 62
     0
 10
127.431
 20
41.5685
 30
0.0
 11
127.431
 21
44.6691
 31
0.0
  0
LINE
  8
0
 62
     0
 10
127.431
 20
44.6691
 30
0.0
 11
126.632
 21
44.6691
 31
0.0
  0
LINE
  8
0
 62
     0
 10
126.632
 20
44.6691
 30
0.0
 11
126.632
 21
45.6681
 31
0.0
  0
LINE
  8
0
 62
     0
 10
126.632
 20
45.6681
 30
0.0
 11
112.631
 21
45.6681
 31
0.0
  0
LINE
  8
0
 62
     0
 10
131.681
 20
45.6681
 30
0.0
 11
131.681
 21
44.6691
 31
0.0
  0
LINE
  8
0
 62
     0
 10
131.681
 20
44.6691
 30
0.0
 11
130.882
 21
44.6691
 31
0.0
  0
LINE
  8
0
 62
     0
 10
130.882
 20
44.6691
 30
0.0
 11
130.882
 21
41.5685
 31
0.0
  0
LINE
  8
0
 62
     0
 10
130.882
 20
41.5685
 30
0.0
 11
131.681
 21
41.5685
 31
0.0
  0
LINE
  8
0
 62
     0
 10
131.681
 20
41.5685
 30
0.0
 11
131.681
 21
35.7671
 31
0.0
  0
LINE
  8
0
 62
     0
 10
131.681
 20
35.7671
 30
0.0
 11
130.882
 21
35.7671
 31
0.0
  0
LINE
  8
0
 62
     0
 10
130.882
 20
35.7671
 30
0.0
 11
130.882
 21
32.6678
 31
0.0
  0
LINE
  8
0
 62
     0
 10
130.882
 20
32.6678
 30
0.0
 11
131.681
 21
32.6678
 31
0.0
  0
LINE
  8
0
 62
     0
 10
131.681
 20
32.6678
 30
0.0
 11
131.681
 21
31.6673
 31
0.0
  0
LINE
  8
0
 62
     0
 10
131.681
 20
31.6673
 30
0.0
 11
145.682
 21
31.6673
 31
0.0
  0
LINE
  8
0
 62
     0
 10
145.682
 20
31.6673
 30
0.0
 11
145.682
 21
32.6678
 31
0.0
  0
LINE
  8
0
 62
     0
 10
145.682
 20
32.6678
 30
0.0
 11
146.481
 21
32.6678
 31
0.0
  0
LINE
  8
0
 62
     0
 10
146.481
 20
32.6678
 30
0.0
 11
146.481
 21
35.7671
 31
0.0
  0
LINE
  8
0
 62
     0
 10
146.481
 20
35.7671
 30
0.0
 11
145.682
 21
35.7671
 31
0.0
  0
LINE
  8
0
 62
     0
 10
145.682
 20
35.7671
 30
0.0
 11
145.682
 21
41.5685
 31
0.0
  0
LINE
  8
0
 62
     0
 10
145.682
 20
41.5685
 30
0.0
 11
146.481
 21
41.5685
 31
0.0
  0
LINE
  8
0
 62
     0
 10
146.481
 20
41.5685
 30
0.0
 11
146.481
 21
44.6691
 31
0.0
  0
LINE
  8
0
 62
     0
 10
146.481
 20
44.6691
 30
0.0
 11
145.682
 21
44.6691
 31
0.0
  0
LINE
  8
0
 62
     0
 10
145.682
 20
44.6691
 30
0.0
 11
145.682
 21
45.6681
 31
0.0
  0
LINE
  8
0
 62
     0
 10
145.682
 20
45.6681
 30
0.0
 11
131.681
 21
45.6681
 31
0.0
  0
LINE
  8
0
 62
     0
 10
150.731
 20
45.6681
 30
0.0
 11
150.731
 21
44.6691
 31
0.0
  0
LINE
  8
0
 62
     0
 10
150.731
 20
44.6691
 30
0.0
 11
149.932
 21
44.6691
 31
0.0
  0
LINE
  8
0
 62
     0
 10
149.932
 20
44.6691
 30
0.0
 11
149.932
 21
41.5685
 31
0.0
  0
LINE
  8
0
 62
     0
 10
149.932
 20
41.5685
 30
0.0
 11
150.731
 21
41.5685
 31
0.0
  0
LINE
  8
0
 62
     0
 10
150.731
 20
41.5685
 30
0.0
 11
150.731
 21
35.7671
 31
0.0
  0
LINE
  8
0
 62
     0
 10
150.731
 20
35.7671
 30
0.0
 11
149.932
 21
35.7671
 31
0.0
  0
LINE
  8
0
 62
     0
 10
149.932
 20
35.7671
 30
0.0
 11
149.932
 21
32.6678
 31
0.0
  0
LINE
  8
0
 62
     0
 10
149.932
 20
32.6678
 30
0.0
 11
150.731
 21
32.6678
 31
0.0
  0
LINE
  8
0
 62
     0
 10
150.731
 20
32.6678
 30
0.0
 11
150.731
 21
31.6673
 31
0.0
  0
LINE
  8
0
 62
     0
 10
150.731
 20
31.6673
 30
0.0
 11
164.732
 21
31.6673
 31
0.0
  0
LINE
  8
0
 62
     0
 10
164.732
 20
31.6673
 30
0.0
 11
164.732
 21
32.6678
 31
0.0
  0
LINE
  8
0
 62
     0
 10
164.732
 20
32.6678
 30
0.0
 11
165.531
 21
32.6678
 31
0.0
  0
LINE
  8
0
 62
     0
 10
165.531
 20
32.6678
 30
0.0
 11
165.531
 21
35.7671
 31
0.0
  0
LINE
  8
0
 62
     0
 10
165.531
 20
35.7671
 30
0.0
 11
164.732
 21
35.7671
 31
0.0
  0
LINE
  8
0
 62
     0
 10
164.732
 20
35.7671
 30
0.0
 11
164.732
 21
41.5685
 31
0.0
  0
LINE
  8
0
 62
     0
 10
164.732
 20
41.5685
 30
0.0
 11
165.531
 21
41.5685
 31
0.0
  0
LINE
  8
0
 62
     0
 10
165.531
 20
41.5685
 30
0.0
 11
165.531
 21
44.6691
 31
0.0
  0
LINE
  8
0
 62
     0
 10
165.531
 20
44.6691
 30
0.0
 11
164.732
 21
44.6691
 31
0.0
  0
LINE
  8
0
 62
     0
 10
164.732
 20
44.6691
 30
0.0
 11
164.732
 21
45.6681
 31
0.0
  0
LINE
  8
0
 62
     0
 10
164.732
 20
45.6681
 30
0.0
 11
150.731
 21
45.6681
 31
0.0
  0
LINE
  8
0
 62
     0
 10
169.781
 20
45.6681
 30
0.0
 11
169.781
 21
44.6691
 31
0.0
  0
LINE
  8
0
 62
     0
 10
169.781
 20
44.6691
 30
0.0
 11
168.982
 21
44.6691
 31
0.0
  0
LINE
  8
0
 62
     0
 10
168.982
 20
44.6691
 30
0.0
 11
168.982
 21
41.5685
 31
0.0
  0
LINE
  8
0
 62
     0
 10
168.982
 20
41.5685
 30
0.0
 11
169.781
 21
41.5685
 31
0.0
  0
LINE
  8
0
 62
     0
 10
169.781
 20
41.5685
 30
0.0
 11
169.781
 21
35.7671
 31
0.0
  0
LINE
  8
0
 62
     0
 10
169.781
 20
35.7671
 30
0.0
 11
168.982
 21
35.7671
 31
0.0
  0
LINE
  8
0
 62
     0
 10
168.982
 20
35.7671
 30
0.0
 11
168.982
 21
32.6678
 31
0.0
  0
LINE
  8
0
 62
     0
 10
168.982
 20
32.6678
 30
0.0
 11
169.781
 21
32.6678
 31
0.0
  0
LINE
  8
0
 62
     0
 10
169.781
 20
32.6678
 30
0.0
 11
169.781
 21
31.6673
 31
0.0
  0
LINE
  8
0
 62
     0
 10
169.781
 20
31.6673
 30
0.0
 11
183.782
 21
31.6673
 31
0.0
  0
LINE
  8
0
 62
     0
 10
183.782
 20
31.6673
 30
0.0
 11
183.782
 21
32.6678
 31
0.0
  0
LINE
  8
0
 62
     0
 10
183.782
 20
32.6678
 30
0.0
 11
184.581
 21
32.6678
 31
0.0
  0
LINE
  8
0
 62
     0
 10
184.581
 20
32.6678
 30
0.0
 11
184.581
 21
35.7671
 31
0.0
  0
LINE
  8
0
 62
     0
 10
184.581
 20
35.7671
 30
0.0
 11
183.782
 21
35.7671
 31
0.0
  0
LINE
  8
0
 62
     0
 10
183.782
 20
35.7671
 30
0.0
 11
183.782
 21
41.5685
 31
0.0
  0
LINE
  8
0
 62
     0
 10
183.782
 20
41.5685
 30
0.0
 11
184.581
 21
41.5685
 31
0.0
  0
LINE
  8
0
 62
     0
 10
184.581
 20
41.5685
 30
0.0
 11
184.581
 21
44.6691
 31
0.0
  0
LINE
  8
0
 62
     0
 10
184.581
 20
44.6691
 30
0.0
 11
183.782
 21
44.6691
 31
0.0
  0
LINE
  8
0
 62
     0
 10
183.782
 20
44.6691
 30
0.0
 11
183.782
 21
45.6681
 31
0.0
  0
LINE
  8
0
 62
     0
 10
183.782
 20
45.6681
 30
0.0
 11
169.781
 21
45.6681
 31
0.0
  0
LINE
  8
0
 62
     0
 10
188.831
 20
45.6681
 30
0.0
 11
188.831
 21
44.6691
 31
0.0
  0
LINE
  8
0
 62
     0
 10
188.831
 20
44.6691
 30
0.0
 11
188.032
 21
44.6691
 31
0.0
  0
LINE
  8
0
 62
     0
 10
188.032
 20
44.6691
 30
0.0
 11
188.032
 21
41.5685
 31
0.0
  0
LINE
  8
0
 62
     0
 10
188.032
 20
41.5685
 30
0.0
 11
188.831
 21
41.5685
 31
0.0
  0
LINE
  8
0
 62
     0
 10
188.831
 20
41.5685
 30
0.0
 11
188.831
 21
35.7671
 31
0.0
  0
LINE
  8
0
 62
     0
 10
188.831
 20
35.7671
 30
0.0
 11
188.032
 21
35.7671
 31
0.0
  0
LINE
  8
0
 62
     0
 10
188.032
 20
35.7671
 30
0.0
 11
188.032
 21
32.6678
 31
0.0
  0
LINE
  8
0
 62
     0
 10
188.032
 20
32.6678
 30
0.0
 11
188.831
 21
32.6678
 31
0.0
  0
LINE
  8
0
 62
     0
 10
188.831
 20
32.6678
 30
0.0
 11
188.831
 21
31.6673
 31
0.0
  0
LINE
  8
0
 62
     0
 10
188.831
 20
31.6673
 30
0.0
 11
202.832
 21
31.6673
 31
0.0
  0
LINE
  8
0
 62
     0
 10
202.832
 20
31.6673
 30
0.0
 11
202.832
 21
32.6678
 31
0.0
  0
LINE
  8
0
 62
     0
 10
202.832
 20
32.6678
 30
0.0
 11
203.631
 21
32.6678
 31
0.0
  0
LINE
  8
0
 62
     0
 10
203.631
 20
32.6678
 30
0.0
 11
203.631
 21
35.7671
 31
0.0
  0
LINE
  8
0
 62
     0
 10
203.631
 20
35.7671
 30
0.0
 11
202.832
 21
35.7671
 31
0.0
  0
LINE
  8
0
 62
     0
 10
202.832
 20
35.7671
 30
0.0
 11
202.832
 21
41.5685
 31
0.0
  0
LINE
  8
0
 62
     0
 10
202.832
 20
41.5685
 30
0.0
 11
203.631
 21
41.5685
 31
0.0
  0
LINE
  8
0
 62
     0
 10
203.631
 20
41.5685
 30
0.0
 11
203.631
 21
44.6691
 31
0.0
  0
LINE
  8
0
 62
     0
 10
203.631
 20
44.6691
 30
0.0
 11
202.832
 21
44.6691
 31
0.0
  0
LINE
  8
0
 62
     0
 10
202.832
 20
44.6691
 30
0.0
 11
202.832
 21
45.6681
 31
0.0
  0
LINE
  8
0
 62
     0
 10
202.832
 20
45.6681
 30
0.0
 11
188.831
 21
45.6681
 31
0.0
  0
LINE
  8
0
 62
     0
 10
207.881
 20
45.6681
 30
0.0
 11
207.881
 21
44.6691
 31
0.0
  0
LINE
  8
0
 62
     0
 10
207.881
 20
44.6691
 30
0.0
 11
207.082
 21
44.6691
 31
0.0
  0
LINE
  8
0
 62
     0
 10
207.082
 20
44.6691
 30
0.0
 11
207.082
 21
41.5685
 31
0.0
  0
LINE
  8
0
 62
     0
 10
207.082
 20
41.5685
 30
0.0
 11
207.881
 21
41.5685
 31
0.0
  0
LINE
  8
0
 62
     0
 10
207.881
 20
41.5685
 30
0.0
 11
207.881
 21
35.7671
 31
0.0
  0
LINE
  8
0
 62
     0
 10
207.881
 20
35.7671
 30
0.0
 11
207.082
 21
35.7671
 31
0.0
  0
LINE
  8
0
 62
     0
 10
207.082
 20
35.7671
 30
0.0
 11
207.082
 21
32.6678
 31
0.0
  0
LINE
  8
0
 62
     0
 10
207.082
 20
32.6678
 30
0.0
 11
207.881
 21
32.6678
 31
0.0
  0
LINE
  8
0
 62
     0
 10
207.881
 20
32.6678
 30
0.0
 11
207.881
 21
31.6673
 31
0.0
  0
LINE
  8
0
 62
     0
 10
207.881
 20
31.6673
 30
0.0
 11
221.882
 21
31.6673
 31
0.0
  0
LINE
  8
0
 62
     0
 10
221.882
 20
31.6673
 30
0.0
 11
221.882
 21
32.6678
 31
0.0
  0
LINE
  8
0
 62
     0
 10
221.882
 20
32.6678
 30
0.0
 11
222.681
 21
32.6678
 31
0.0
  0
LINE
  8
0
 62
     0
 10
222.681
 20
32.6678
 30
0.0
 11
222.681
 21
35.7671
 31
0.0
  0
LINE
  8
0
 62
     0
 10
222.681
 20
35.7671
 30
0.0
 11
221.882
 21
35.7671
 31
0.0
  0
LINE
  8
0
 62
     0
 10
221.882
 20
35.7671
 30
0.0
 11
221.882
 21
41.5685
 31
0.0
  0
LINE
  8
0
 62
     0
 10
221.882
 20
41.5685
 30
0.0
 11
222.681
 21
41.5685
 31
0.0
  0
LINE
  8
0
 62
     0
 10
222.681
 20
41.5685
 30
0.0
 11
222.681
 21
44.6691
 31
0.0
  0
LINE
  8
0
 62
     0
 10
222.681
 20
44.6691
 30
0.0
 11
221.882
 21
44.6691
 31
0.0
  0
LINE
  8
0
 62
     0
 10
221.882
 20
44.6691
 30
0.0
 11
221.882
 21
45.6681
 31
0.0
  0
LINE
  8
0
 62
     0
 10
221.882
 20
45.6681
 30
0.0
 11
207.881
 21
45.6681
 31
0.0
  0
LINE
  8
0
 62
     0
 10
226.931
 20
45.6681
 30
0.0
 11
226.931
 21
44.6691
 31
0.0
  0
LINE
  8
0
 62
     0
 10
226.931
 20
44.6691
 30
0.0
 11
226.132
 21
44.6691
 31
0.0
  0
LINE
  8
0
 62
     0
 10
226.132
 20
44.6691
 30
0.0
 11
226.132
 21
41.5685
 31
0.0
  0
LINE
  8
0
 62
     0
 10
226.132
 20
41.5685
 30
0.0
 11
226.931
 21
41.5685
 31
0.0
  0
LINE
  8
0
 62
     0
 10
226.931
 20
41.5685
 30
0.0
 11
226.931
 21
35.7671
 31
0.0
  0
LINE
  8
0
 62
     0
 10
226.931
 20
35.7671
 30
0.0
 11
226.132
 21
35.7671
 31
0.0
  0
LINE
  8
0
 62
     0
 10
226.132
 20
35.7671
 30
0.0
 11
226.132
 21
32.6678
 31
0.0
  0
LINE
  8
0
 62
     0
 10
226.132
 20
32.6678
 30
0.0
 11
226.931
 21
32.6678
 31
0.0
  0
LINE
  8
0
 62
     0
 10
226.931
 20
32.6678
 30
0.0
 11
226.931
 21
31.6673
 31
0.0
  0
LINE
  8
0
 62
     0
 10
226.931
 20
31.6673
 30
0.0
 11
240.932
 21
31.6673
 31
0.0
  0
LINE
  8
0
 62
     0
 10
240.932
 20
31.6673
 30
0.0
 11
240.932
 21
32.6678
 31
0.0
  0
LINE
  8
0
 62
     0
 10
240.932
 20
32.6678
 30
0.0
 11
241.731
 21
32.6678
 31
0.0
  0
LINE
  8
0
 62
     0
 10
241.731
 20
32.6678
 30
0.0
 11
241.731
 21
35.7671
 31
0.0
  0
LINE
  8
0
 62
     0
 10
241.731
 20
35.7671
 30
0.0
 11
240.932
 21
35.7671
 31
0.0
  0
LINE
  8
0
 62
     0
 10
240.932
 20
35.7671
 30
0.0
 11
240.932
 21
41.5685
 31
0.0
  0
LINE
  8
0
 62
     0
 10
240.932
 20
41.5685
 30
0.0
 11
241.731
 21
41.5685
 31
0.0
  0
LINE
  8
0
 62
     0
 10
241.731
 20
41.5685
 30
0.0
 11
241.731
 21
44.6691
 31
0.0
  0
LINE
  8
0
 62
     0
 10
241.731
 20
44.6691
 30
0.0
 11
240.932
 21
44.6691
 31
0.0
  0
LINE
  8
0
 62
     0
 10
240.932
 20
44.6691
 30
0.0
 11
240.932
 21
45.6681
 31
0.0
  0
LINE
  8
0
 62
     0
 10
240.932
 20
45.6681
 30
0.0
 11
226.931
 21
45.6681
 31
0.0
  0
LINE
  8
0
 62
     0
 10
303.131
 20
45.6681
 30
0.0
 11
303.131
 21
44.6691
 31
0.0
  0
LINE
  8
0
 62
     0
 10
303.131
 20
44.6691
 30
0.0
 11
302.332
 21
44.6691
 31
0.0
  0
LINE
  8
0
 62
     0
 10
302.332
 20
44.6691
 30
0.0
 11
302.332
 21
41.5685
 31
0.0
  0
LINE
  8
0
 62
     0
 10
302.332
 20
41.5685
 30
0.0
 11
303.131
 21
41.5685
 31
0.0
  0
LINE
  8
0
 62
     0
 10
303.131
 20
41.5685
 30
0.0
 11
303.131
 21
35.7671
 31
0.0
  0
LINE
  8
0
 62
     0
 10
303.131
 20
35.7671
 30
0.0
 11
302.332
 21
35.7671
 31
0.0
  0
LINE
  8
0
 62
     0
 10
302.332
 20
35.7671
 30
0.0
 11
302.332
 21
32.6678
 31
0.0
  0
LINE
  8
0
 62
     0
 10
302.332
 20
32.6678
 30
0.0
 11
303.131
 21
32.6678
 31
0.0
  0
LINE
  8
0
 62
     0
 10
303.131
 20
32.6678
 30
0.0
 11
303.131
 21
31.6673
 31
0.0
  0
LINE
  8
0
 62
     0
 10
303.131
 20
31.6673
 30
0.0
 11
317.132
 21
31.6673
 31
0.0
  0
LINE
  8
0
 62
     0
 10
317.132
 20
31.6673
 30
0.0
 11
317.132
 21
32.6678
 31
0.0
  0
LINE
  8
0
 62
     0
 10
317.132
 20
32.6678
 30
0.0
 11
317.931
 21
32.6678
 31
0.0
  0
LINE
  8
0
 62
     0
 10
317.931
 20
32.6678
 30
0.0
 11
317.931
 21
35.7671
 31
0.0
  0
LINE
  8
0
 62
     0
 10
317.931
 20
35.7671
 30
0.0
 11
317.132
 21
35.7671
 31
0.0
  0
LINE
  8
0
 62
     0
 10
317.132
 20
35.7671
 30
0.0
 11
317.132
 21
41.5685
 31
0.0
  0
LINE
  8
0
 62
     0
 10
317.132
 20
41.5685
 30
0.0
 11
317.931
 21
41.5685
 31
0.0
  0
LINE
  8
0
 62
     0
 10
317.931
 20
41.5685
 30
0.0
 11
317.931
 21
44.6691
 31
0.0
  0
LINE
  8
0
 62
     0
 10
317.931
 20
44.6691
 30
0.0
 11
317.132
 21
44.6691
 31
0.0
  0
LINE
  8
0
 62
     0
 10
317.132
 20
44.6691
 30
0.0
 11
317.132
 21
45.6681
 31
0.0
  0
LINE
  8
0
 62
     0
 10
317.132
 20
45.6681
 30
0.0
 11
303.131
 21
45.6681
 31
0.0
  0
LINE
  8
0
 62
     0
 10
267.413
 20
64.7181
 30
0.0
 11
267.413
 21
63.7191
 31
0.0
  0
LINE
  8
0
 62
     0
 10
267.413
 20
63.7191
 30
0.0
 11
266.613
 21
63.7191
 31
0.0
  0
LINE
  8
0
 62
     0
 10
266.613
 20
63.7191
 30
0.0
 11
266.613
 21
60.6171
 31
0.0
  0
LINE
  8
0
 62
     0
 10
266.613
 20
60.6171
 30
0.0
 11
267.413
 21
60.6171
 31
0.0
  0
LINE
  8
0
 62
     0
 10
267.413
 20
60.6171
 30
0.0
 11
267.413
 21
60.0177
 31
0.0
  0
LINE
  8
0
 62
     0
 10
267.413
 20
60.0177
 30
0.0
 11
265.888
 21
60.0177
 31
0.0
  0
LINE
  8
0
 62
     0
 10
265.888
 20
60.0177
 30
0.0
 11
265.888
 21
63.2478
 31
0.0
  0
LINE
  8
0
 62
     0
 10
265.888
 20
63.2478
 30
0.0
 11
264.163
 21
63.2478
 31
0.0
  0
LINE
  8
0
 62
     0
 10
264.163
 20
63.2478
 30
0.0
 11
264.163
 21
64.1671
 31
0.0
  0
LINE
  8
0
 62
     0
 10
264.163
 20
64.1671
 30
0.0
 11
260.863
 21
64.1671
 31
0.0
  0
LINE
  8
0
 62
     0
 10
260.863
 20
64.1671
 30
0.0
 11
260.863
 21
63.2478
 31
0.0
  0
LINE
  8
0
 62
     0
 10
260.863
 20
63.2478
 30
0.0
 11
259.137
 21
63.2478
 31
0.0
  0
LINE
  8
0
 62
     0
 10
259.137
 20
63.2478
 30
0.0
 11
259.137
 21
60.0177
 31
0.0
  0
LINE
  8
0
 62
     0
 10
259.137
 20
60.0177
 30
0.0
 11
258.313
 21
60.0177
 31
0.0
  0
LINE
  8
0
 62
     0
 10
258.313
 20
60.0177
 30
0.0
 11
258.313
 21
57.2188
 31
0.0
  0
LINE
  8
0
 62
     0
 10
258.313
 20
57.2188
 30
0.0
 11
259.137
 21
57.2188
 31
0.0
  0
LINE
  8
0
 62
     0
 10
259.137
 20
57.2188
 30
0.0
 11
259.137
 21
50.9475
 31
0.0
  0
LINE
  8
0
 62
     0
 10
259.137
 20
50.9475
 30
0.0
 11
260.863
 21
50.9475
 31
0.0
  0
LINE
  8
0
 62
     0
 10
260.863
 20
50.9475
 30
0.0
 11
260.863
 21
49.9678
 31
0.0
  0
LINE
  8
0
 62
     0
 10
260.863
 20
49.9678
 30
0.0
 11
264.163
 21
49.9678
 31
0.0
  0
LINE
  8
0
 62
     0
 10
264.163
 20
49.9678
 30
0.0
 11
264.163
 21
50.9475
 31
0.0
  0
LINE
  8
0
 62
     0
 10
264.163
 20
50.9475
 30
0.0
 11
265.888
 21
50.9475
 31
0.0
  0
LINE
  8
0
 62
     0
 10
265.888
 20
50.9475
 30
0.0
 11
265.888
 21
55.4179
 31
0.0
  0
LINE
  8
0
 62
     0
 10
265.888
 20
55.4179
 30
0.0
 11
267.413
 21
55.4179
 31
0.0
  0
LINE
  8
0
 62
     0
 10
267.413
 20
55.4179
 30
0.0
 11
267.413
 21
54.8171
 31
0.0
  0
LINE
  8
0
 62
     0
 10
267.413
 20
54.8171
 30
0.0
 11
266.613
 21
54.8171
 31
0.0
  0
LINE
  8
0
 62
     0
 10
266.613
 20
54.8171
 30
0.0
 11
266.613
 21
51.7179
 31
0.0
  0
LINE
  8
0
 62
     0
 10
266.613
 20
51.7179
 30
0.0
 11
267.413
 21
51.7179
 31
0.0
  0
LINE
  8
0
 62
     0
 10
267.413
 20
51.7179
 30
0.0
 11
267.413
 21
50.7175
 31
0.0
  0
LINE
  8
0
 62
     0
 10
267.413
 20
50.7175
 30
0.0
 11
281.413
 21
50.7175
 31
0.0
  0
LINE
  8
0
 62
     0
 10
281.413
 20
50.7175
 30
0.0
 11
281.413
 21
51.7179
 31
0.0
  0
LINE
  8
0
 62
     0
 10
281.413
 20
51.7179
 30
0.0
 11
282.213
 21
51.7179
 31
0.0
  0
LINE
  8
0
 62
     0
 10
282.213
 20
51.7179
 30
0.0
 11
282.213
 21
54.8171
 31
0.0
  0
LINE
  8
0
 62
     0
 10
282.213
 20
54.8171
 30
0.0
 11
281.413
 21
54.8171
 31
0.0
  0
LINE
  8
0
 62
     0
 10
281.413
 20
54.8171
 30
0.0
 11
281.413
 21
55.4179
 31
0.0
  0
LINE
  8
0
 62
     0
 10
281.413
 20
55.4179
 30
0.0
 11
282.937
 21
55.4179
 31
0.0
  0
LINE
  8
0
 62
     0
 10
282.937
 20
55.4179
 30
0.0
 11
282.937
 21
50.9475
 31
0.0
  0
LINE
  8
0
 62
     0
 10
282.937
 20
50.9475
 30
0.0
 11
284.663
 21
50.9475
 31
0.0
  0
LINE
  8
0
 62
     0
 10
284.663
 20
50.9475
 30
0.0
 11
284.663
 21
49.9678
 31
0.0
  0
LINE
  8
0
 62
     0
 10
284.663
 20
49.9678
 30
0.0
 11
287.963
 21
49.9678
 31
0.0
  0
LINE
  8
0
 62
     0
 10
287.963
 20
49.9678
 30
0.0
 11
287.963
 21
50.9475
 31
0.0
  0
LINE
  8
0
 62
     0
 10
287.963
 20
50.9475
 30
0.0
 11
289.688
 21
50.9475
 31
0.0
  0
LINE
  8
0
 62
     0
 10
289.688
 20
50.9475
 30
0.0
 11
289.688
 21
57.2188
 31
0.0
  0
LINE
  8
0
 62
     0
 10
289.688
 20
57.2188
 30
0.0
 11
290.513
 21
57.2188
 31
0.0
  0
LINE
  8
0
 62
     0
 10
290.513
 20
57.2188
 30
0.0
 11
290.513
 21
60.0177
 31
0.0
  0
LINE
  8
0
 62
     0
 10
290.513
 20
60.0177
 30
0.0
 11
289.688
 21
60.0177
 31
0.0
  0
LINE
  8
0
 62
     0
 10
289.688
 20
60.0177
 30
0.0
 11
289.688
 21
63.2478
 31
0.0
  0
LINE
  8
0
 62
     0
 10
289.688
 20
63.2478
 30
0.0
 11
287.963
 21
63.2478
 31
0.0
  0
LINE
  8
0
 62
     0
 10
287.963
 20
63.2478
 30
0.0
 11
287.963
 21
64.1671
 31
0.0
  0
LINE
  8
0
 62
     0
 10
287.963
 20
64.1671
 30
0.0
 11
284.663
 21
64.1671
 31
0.0
  0
LINE
  8
0
 62
     0
 10
284.663
 20
64.1671
 30
0.0
 11
284.663
 21
63.2478
 31
0.0
  0
LINE
  8
0
 62
     0
 10
284.663
 20
63.2478
 30
0.0
 11
282.937
 21
63.2478
 31
0.0
  0
LINE
  8
0
 62
     0
 10
282.937
 20
63.2478
 30
0.0
 11
282.937
 21
60.0177
 31
0.0
  0
LINE
  8
0
 62
     0
 10
282.937
 20
60.0177
 30
0.0
 11
281.413
 21
60.0177
 31
0.0
  0
LINE
  8
0
 62
     0
 10
281.413
 20
60.0177
 30
0.0
 11
281.413
 21
60.6171
 31
0.0
  0
LINE
  8
0
 62
     0
 10
281.413
 20
60.6171
 30
0.0
 11
282.213
 21
60.6171
 31
0.0
  0
LINE
  8
0
 62
     0
 10
282.213
 20
60.6171
 30
0.0
 11
282.213
 21
63.7191
 31
0.0
  0
LINE
  8
0
 62
     0
 10
282.213
 20
63.7191
 30
0.0
 11
281.413
 21
63.7191
 31
0.0
  0
LINE
  8
0
 62
     0
 10
281.413
 20
63.7191
 30
0.0
 11
281.413
 21
64.7181
 31
0.0
  0
LINE
  8
0
 62
     0
 10
281.413
 20
64.7181
 30
0.0
 11
267.413
 21
64.7181
 31
0.0
  0
LINE
  8
0
 62
     0
 10
19.7624
 20
64.7181
 30
0.0
 11
19.7624
 21
63.7191
 31
0.0
  0
LINE
  8
0
 62
     0
 10
19.7624
 20
63.7191
 30
0.0
 11
18.9632
 21
63.7191
 31
0.0
  0
LINE
  8
0
 62
     0
 10
18.9632
 20
63.7191
 30
0.0
 11
18.9632
 21
60.6171
 31
0.0
  0
LINE
  8
0
 62
     0
 10
18.9632
 20
60.6171
 30
0.0
 11
19.7624
 21
60.6171
 31
0.0
  0
LINE
  8
0
 62
     0
 10
19.7624
 20
60.6171
 30
0.0
 11
19.7624
 21
54.8171
 31
0.0
  0
LINE
  8
0
 62
     0
 10
19.7624
 20
54.8171
 30
0.0
 11
18.9632
 21
54.8171
 31
0.0
  0
LINE
  8
0
 62
     0
 10
18.9632
 20
54.8171
 30
0.0
 11
18.9632
 21
51.7179
 31
0.0
  0
LINE
  8
0
 62
     0
 10
18.9632
 20
51.7179
 30
0.0
 11
19.7624
 21
51.7179
 31
0.0
  0
LINE
  8
0
 62
     0
 10
19.7624
 20
51.7179
 30
0.0
 11
19.7624
 21
50.7175
 31
0.0
  0
LINE
  8
0
 62
     0
 10
19.7624
 20
50.7175
 30
0.0
 11
33.7633
 21
50.7175
 31
0.0
  0
LINE
  8
0
 62
     0
 10
33.7633
 20
50.7175
 30
0.0
 11
33.7633
 21
51.7179
 31
0.0
  0
LINE
  8
0
 62
     0
 10
33.7633
 20
51.7179
 30
0.0
 11
34.5626
 21
51.7179
 31
0.0
  0
LINE
  8
0
 62
     0
 10
34.5626
 20
51.7179
 30
0.0
 11
34.5626
 21
54.8171
 31
0.0
  0
LINE
  8
0
 62
     0
 10
34.5626
 20
54.8171
 30
0.0
 11
33.7633
 21
54.8171
 31
0.0
  0
LINE
  8
0
 62
     0
 10
33.7633
 20
54.8171
 30
0.0
 11
33.7633
 21
60.6171
 31
0.0
  0
LINE
  8
0
 62
     0
 10
33.7633
 20
60.6171
 30
0.0
 11
34.5626
 21
60.6171
 31
0.0
  0
LINE
  8
0
 62
     0
 10
34.5626
 20
60.6171
 30
0.0
 11
34.5626
 21
63.7191
 31
0.0
  0
LINE
  8
0
 62
     0
 10
34.5626
 20
63.7191
 30
0.0
 11
33.7633
 21
63.7191
 31
0.0
  0
LINE
  8
0
 62
     0
 10
33.7633
 20
63.7191
 30
0.0
 11
33.7633
 21
64.7181
 31
0.0
  0
LINE
  8
0
 62
     0
 10
33.7633
 20
64.7181
 30
0.0
 11
19.7624
 21
64.7181
 31
0.0
  0
LINE
  8
0
 62
     0
 10
45.9564
 20
64.7181
 30
0.0
 11
45.9564
 21
63.7191
 31
0.0
  0
LINE
  8
0
 62
     0
 10
45.9564
 20
63.7191
 30
0.0
 11
45.157
 21
63.7191
 31
0.0
  0
LINE
  8
0
 62
     0
 10
45.157
 20
63.7191
 30
0.0
 11
45.157
 21
60.6171
 31
0.0
  0
LINE
  8
0
 62
     0
 10
45.157
 20
60.6171
 30
0.0
 11
45.9564
 21
60.6171
 31
0.0
  0
LINE
  8
0
 62
     0
 10
45.9564
 20
60.6171
 30
0.0
 11
45.9564
 21
54.8171
 31
0.0
  0
LINE
  8
0
 62
     0
 10
45.9564
 20
54.8171
 30
0.0
 11
45.157
 21
54.8171
 31
0.0
  0
LINE
  8
0
 62
     0
 10
45.157
 20
54.8171
 30
0.0
 11
45.157
 21
51.7179
 31
0.0
  0
LINE
  8
0
 62
     0
 10
45.157
 20
51.7179
 30
0.0
 11
45.9564
 21
51.7179
 31
0.0
  0
LINE
  8
0
 62
     0
 10
45.9564
 20
51.7179
 30
0.0
 11
45.9564
 21
50.7175
 31
0.0
  0
LINE
  8
0
 62
     0
 10
45.9564
 20
50.7175
 30
0.0
 11
59.9556
 21
50.7175
 31
0.0
  0
LINE
  8
0
 62
     0
 10
59.9556
 20
50.7175
 30
0.0
 11
59.9556
 21
51.7179
 31
0.0
  0
LINE
  8
0
 62
     0
 10
59.9556
 20
51.7179
 30
0.0
 11
60.7564
 21
51.7179
 31
0.0
  0
LINE
  8
0
 62
     0
 10
60.7564
 20
51.7179
 30
0.0
 11
60.7564
 21
54.8171
 31
0.0
  0
LINE
  8
0
 62
     0
 10
60.7564
 20
54.8171
 30
0.0
 11
59.9556
 21
54.8171
 31
0.0
  0
LINE
  8
0
 62
     0
 10
59.9556
 20
54.8171
 30
0.0
 11
59.9556
 21
60.6171
 31
0.0
  0
LINE
  8
0
 62
     0
 10
59.9556
 20
60.6171
 30
0.0
 11
60.7564
 21
60.6171
 31
0.0
  0
LINE
  8
0
 62
     0
 10
60.7564
 20
60.6171
 30
0.0
 11
60.7564
 21
63.7191
 31
0.0
  0
LINE
  8
0
 62
     0
 10
60.7564
 20
63.7191
 30
0.0
 11
59.9556
 21
63.7191
 31
0.0
  0
LINE
  8
0
 62
     0
 10
59.9556
 20
63.7191
 30
0.0
 11
59.9556
 21
64.7181
 31
0.0
  0
LINE
  8
0
 62
     0
 10
59.9556
 20
64.7181
 30
0.0
 11
45.9564
 21
64.7181
 31
0.0
  0
LINE
  8
0
 62
     0
 10
65.0064
 20
64.7181
 30
0.0
 11
65.0064
 21
63.7191
 31
0.0
  0
LINE
  8
0
 62
     0
 10
65.0064
 20
63.7191
 30
0.0
 11
64.207
 21
63.7191
 31
0.0
  0
LINE
  8
0
 62
     0
 10
64.207
 20
63.7191
 30
0.0
 11
64.207
 21
60.6171
 31
0.0
  0
LINE
  8
0
 62
     0
 10
64.207
 20
60.6171
 30
0.0
 11
65.0064
 21
60.6171
 31
0.0
  0
LINE
  8
0
 62
     0
 10
65.0064
 20
60.6171
 30
0.0
 11
65.0064
 21
54.8171
 31
0.0
  0
LINE
  8
0
 62
     0
 10
65.0064
 20
54.8171
 30
0.0
 11
64.207
 21
54.8171
 31
0.0
  0
LINE
  8
0
 62
     0
 10
64.207
 20
54.8171
 30
0.0
 11
64.207
 21
51.7179
 31
0.0
  0
LINE
  8
0
 62
     0
 10
64.207
 20
51.7179
 30
0.0
 11
65.0064
 21
51.7179
 31
0.0
  0
LINE
  8
0
 62
     0
 10
65.0064
 20
51.7179
 30
0.0
 11
65.0064
 21
50.7175
 31
0.0
  0
LINE
  8
0
 62
     0
 10
65.0064
 20
50.7175
 30
0.0
 11
79.0071
 21
50.7175
 31
0.0
  0
LINE
  8
0
 62
     0
 10
79.0071
 20
50.7175
 30
0.0
 11
79.0071
 21
51.7179
 31
0.0
  0
LINE
  8
0
 62
     0
 10
79.0071
 20
51.7179
 30
0.0
 11
79.8065
 21
51.7179
 31
0.0
  0
LINE
  8
0
 62
     0
 10
79.8065
 20
51.7179
 30
0.0
 11
79.8065
 21
54.8171
 31
0.0
  0
LINE
  8
0
 62
     0
 10
79.8065
 20
54.8171
 30
0.0
 11
79.0071
 21
54.8171
 31
0.0
  0
LINE
  8
0
 62
     0
 10
79.0071
 20
54.8171
 30
0.0
 11
79.0071
 21
60.6171
 31
0.0
  0
LINE
  8
0
 62
     0
 10
79.0071
 20
60.6171
 30
0.0
 11
79.8065
 21
60.6171
 31
0.0
  0
LINE
  8
0
 62
     0
 10
79.8065
 20
60.6171
 30
0.0
 11
79.8065
 21
63.7191
 31
0.0
  0
LINE
  8
0
 62
     0
 10
79.8065
 20
63.7191
 30
0.0
 11
79.0071
 21
63.7191
 31
0.0
  0
LINE
  8
0
 62
     0
 10
79.0071
 20
63.7191
 30
0.0
 11
79.0071
 21
64.7181
 31
0.0
  0
LINE
  8
0
 62
     0
 10
79.0071
 20
64.7181
 30
0.0
 11
65.0064
 21
64.7181
 31
0.0
  0
LINE
  8
0
 62
     0
 10
84.0564
 20
64.7181
 30
0.0
 11
84.0564
 21
63.7191
 31
0.0
  0
LINE
  8
0
 62
     0
 10
84.0564
 20
63.7191
 30
0.0
 11
83.257
 21
63.7191
 31
0.0
  0
LINE
  8
0
 62
     0
 10
83.257
 20
63.7191
 30
0.0
 11
83.257
 21
60.6171
 31
0.0
  0
LINE
  8
0
 62
     0
 10
83.257
 20
60.6171
 30
0.0
 11
84.0564
 21
60.6171
 31
0.0
  0
LINE
  8
0
 62
     0
 10
84.0564
 20
60.6171
 30
0.0
 11
84.0564
 21
54.8171
 31
0.0
  0
LINE
  8
0
 62
     0
 10
84.0564
 20
54.8171
 30
0.0
 11
83.257
 21
54.8171
 31
0.0
  0
LINE
  8
0
 62
     0
 10
83.257
 20
54.8171
 30
0.0
 11
83.257
 21
51.7179
 31
0.0
  0
LINE
  8
0
 62
     0
 10
83.257
 20
51.7179
 30
0.0
 11
84.0564
 21
51.7179
 31
0.0
  0
LINE
  8
0
 62
     0
 10
84.0564
 20
51.7179
 30
0.0
 11
84.0564
 21
50.7175
 31
0.0
  0
LINE
  8
0
 62
     0
 10
84.0564
 20
50.7175
 30
0.0
 11
98.0571
 21
50.7175
 31
0.0
  0
LINE
  8
0
 62
     0
 10
98.0571
 20
50.7175
 30
0.0
 11
98.0571
 21
51.7179
 31
0.0
  0
LINE
  8
0
 62
     0
 10
98.0571
 20
51.7179
 30
0.0
 11
98.8564
 21
51.7179
 31
0.0
  0
LINE
  8
0
 62
     0
 10
98.8564
 20
51.7179
 30
0.0
 11
98.8564
 21
54.8171
 31
0.0
  0
LINE
  8
0
 62
     0
 10
98.8564
 20
54.8171
 30
0.0
 11
98.0571
 21
54.8171
 31
0.0
  0
LINE
  8
0
 62
     0
 10
98.0571
 20
54.8171
 30
0.0
 11
98.0571
 21
60.6171
 31
0.0
  0
LINE
  8
0
 62
     0
 10
98.0571
 20
60.6171
 30
0.0
 11
98.8564
 21
60.6171
 31
0.0
  0
LINE
  8
0
 62
     0
 10
98.8564
 20
60.6171
 30
0.0
 11
98.8564
 21
63.7191
 31
0.0
  0
LINE
  8
0
 62
     0
 10
98.8564
 20
63.7191
 30
0.0
 11
98.0571
 21
63.7191
 31
0.0
  0
LINE
  8
0
 62
     0
 10
98.0571
 20
63.7191
 30
0.0
 11
98.0571
 21
64.7181
 31
0.0
  0
LINE
  8
0
 62
     0
 10
98.0571
 20
64.7181
 30
0.0
 11
84.0564
 21
64.7181
 31
0.0
  0
LINE
  8
0
 62
     0
 10
103.106
 20
64.7181
 30
0.0
 11
103.106
 21
63.7191
 31
0.0
  0
LINE
  8
0
 62
     0
 10
103.106
 20
63.7191
 30
0.0
 11
102.307
 21
63.7191
 31
0.0
  0
LINE
  8
0
 62
     0
 10
102.307
 20
63.7191
 30
0.0
 11
102.307
 21
60.6171
 31
0.0
  0
LINE
  8
0
 62
     0
 10
102.307
 20
60.6171
 30
0.0
 11
103.106
 21
60.6171
 31
0.0
  0
LINE
  8
0
 62
     0
 10
103.106
 20
60.6171
 30
0.0
 11
103.106
 21
54.8171
 31
0.0
  0
LINE
  8
0
 62
     0
 10
103.106
 20
54.8171
 30
0.0
 11
102.307
 21
54.8171
 31
0.0
  0
LINE
  8
0
 62
     0
 10
102.307
 20
54.8171
 30
0.0
 11
102.307
 21
51.7179
 31
0.0
  0
LINE
  8
0
 62
     0
 10
102.307
 20
51.7179
 30
0.0
 11
103.106
 21
51.7179
 31
0.0
  0
LINE
  8
0
 62
     0
 10
103.106
 20
51.7179
 30
0.0
 11
103.106
 21
50.7175
 31
0.0
  0
LINE
  8
0
 62
     0
 10
103.106
 20
50.7175
 30
0.0
 11
117.107
 21
50.7175
 31
0.0
  0
LINE
  8
0
 62
     0
 10
117.107
 20
50.7175
 30
0.0
 11
117.107
 21
51.7179
 31
0.0
  0
LINE
  8
0
 62
     0
 10
117.107
 20
51.7179
 30
0.0
 11
117.906
 21
51.7179
 31
0.0
  0
LINE
  8
0
 62
     0
 10
117.906
 20
51.7179
 30
0.0
 11
117.906
 21
54.8171
 31
0.0
  0
LINE
  8
0
 62
     0
 10
117.906
 20
54.8171
 30
0.0
 11
117.107
 21
54.8171
 31
0.0
  0
LINE
  8
0
 62
     0
 10
117.107
 20
54.8171
 30
0.0
 11
117.107
 21
60.6171
 31
0.0
  0
LINE
  8
0
 62
     0
 10
117.107
 20
60.6171
 30
0.0
 11
117.906
 21
60.6171
 31
0.0
  0
LINE
  8
0
 62
     0
 10
117.906
 20
60.6171
 30
0.0
 11
117.906
 21
63.7191
 31
0.0
  0
LINE
  8
0
 62
     0
 10
117.906
 20
63.7191
 30
0.0
 11
117.107
 21
63.7191
 31
0.0
  0
LINE
  8
0
 62
     0
 10
117.107
 20
63.7191
 30
0.0
 11
117.107
 21
64.7181
 31
0.0
  0
LINE
  8
0
 62
     0
 10
117.107
 20
64.7181
 30
0.0
 11
103.106
 21
64.7181
 31
0.0
  0
LINE
  8
0
 62
     0
 10
122.156
 20
64.7181
 30
0.0
 11
122.156
 21
63.7191
 31
0.0
  0
LINE
  8
0
 62
     0
 10
122.156
 20
63.7191
 30
0.0
 11
121.357
 21
63.7191
 31
0.0
  0
LINE
  8
0
 62
     0
 10
121.357
 20
63.7191
 30
0.0
 11
121.357
 21
60.6171
 31
0.0
  0
LINE
  8
0
 62
     0
 10
121.357
 20
60.6171
 30
0.0
 11
122.156
 21
60.6171
 31
0.0
  0
LINE
  8
0
 62
     0
 10
122.156
 20
60.6171
 30
0.0
 11
122.156
 21
54.8171
 31
0.0
  0
LINE
  8
0
 62
     0
 10
122.156
 20
54.8171
 30
0.0
 11
121.357
 21
54.8171
 31
0.0
  0
LINE
  8
0
 62
     0
 10
121.357
 20
54.8171
 30
0.0
 11
121.357
 21
51.7179
 31
0.0
  0
LINE
  8
0
 62
     0
 10
121.357
 20
51.7179
 30
0.0
 11
122.156
 21
51.7179
 31
0.0
  0
LINE
  8
0
 62
     0
 10
122.156
 20
51.7179
 30
0.0
 11
122.156
 21
50.7175
 31
0.0
  0
LINE
  8
0
 62
     0
 10
122.156
 20
50.7175
 30
0.0
 11
136.157
 21
50.7175
 31
0.0
  0
LINE
  8
0
 62
     0
 10
136.157
 20
50.7175
 30
0.0
 11
136.157
 21
51.7179
 31
0.0
  0
LINE
  8
0
 62
     0
 10
136.157
 20
51.7179
 30
0.0
 11
136.956
 21
51.7179
 31
0.0
  0
LINE
  8
0
 62
     0
 10
136.956
 20
51.7179
 30
0.0
 11
136.956
 21
54.8171
 31
0.0
  0
LINE
  8
0
 62
     0
 10
136.956
 20
54.8171
 30
0.0
 11
136.157
 21
54.8171
 31
0.0
  0
LINE
  8
0
 62
     0
 10
136.157
 20
54.8171
 30
0.0
 11
136.157
 21
60.6171
 31
0.0
  0
LINE
  8
0
 62
     0
 10
136.157
 20
60.6171
 30
0.0
 11
136.956
 21
60.6171
 31
0.0
  0
LINE
  8
0
 62
     0
 10
136.956
 20
60.6171
 30
0.0
 11
136.956
 21
63.7191
 31
0.0
  0
LINE
  8
0
 62
     0
 10
136.956
 20
63.7191
 30
0.0
 11
136.157
 21
63.7191
 31
0.0
  0
LINE
  8
0
 62
     0
 10
136.157
 20
63.7191
 30
0.0
 11
136.157
 21
64.7181
 31
0.0
  0
LINE
  8
0
 62
     0
 10
136.157
 20
64.7181
 30
0.0
 11
122.156
 21
64.7181
 31
0.0
  0
LINE
  8
0
 62
     0
 10
141.206
 20
64.7181
 30
0.0
 11
141.206
 21
63.7191
 31
0.0
  0
LINE
  8
0
 62
     0
 10
141.206
 20
63.7191
 30
0.0
 11
140.407
 21
63.7191
 31
0.0
  0
LINE
  8
0
 62
     0
 10
140.407
 20
63.7191
 30
0.0
 11
140.407
 21
60.6171
 31
0.0
  0
LINE
  8
0
 62
     0
 10
140.407
 20
60.6171
 30
0.0
 11
141.206
 21
60.6171
 31
0.0
  0
LINE
  8
0
 62
     0
 10
141.206
 20
60.6171
 30
0.0
 11
141.206
 21
54.8171
 31
0.0
  0
LINE
  8
0
 62
     0
 10
141.206
 20
54.8171
 30
0.0
 11
140.407
 21
54.8171
 31
0.0
  0
LINE
  8
0
 62
     0
 10
140.407
 20
54.8171
 30
0.0
 11
140.407
 21
51.7179
 31
0.0
  0
LINE
  8
0
 62
     0
 10
140.407
 20
51.7179
 30
0.0
 11
141.206
 21
51.7179
 31
0.0
  0
LINE
  8
0
 62
     0
 10
141.206
 20
51.7179
 30
0.0
 11
141.206
 21
50.7175
 31
0.0
  0
LINE
  8
0
 62
     0
 10
141.206
 20
50.7175
 30
0.0
 11
155.207
 21
50.7175
 31
0.0
  0
LINE
  8
0
 62
     0
 10
155.207
 20
50.7175
 30
0.0
 11
155.207
 21
51.7179
 31
0.0
  0
LINE
  8
0
 62
     0
 10
155.207
 20
51.7179
 30
0.0
 11
156.006
 21
51.7179
 31
0.0
  0
LINE
  8
0
 62
     0
 10
156.006
 20
51.7179
 30
0.0
 11
156.006
 21
54.8171
 31
0.0
  0
LINE
  8
0
 62
     0
 10
156.006
 20
54.8171
 30
0.0
 11
155.207
 21
54.8171
 31
0.0
  0
LINE
  8
0
 62
     0
 10
155.207
 20
54.8171
 30
0.0
 11
155.207
 21
60.6171
 31
0.0
  0
LINE
  8
0
 62
     0
 10
155.207
 20
60.6171
 30
0.0
 11
156.006
 21
60.6171
 31
0.0
  0
LINE
  8
0
 62
     0
 10
156.006
 20
60.6171
 30
0.0
 11
156.006
 21
63.7191
 31
0.0
  0
LINE
  8
0
 62
     0
 10
156.006
 20
63.7191
 30
0.0
 11
155.207
 21
63.7191
 31
0.0
  0
LINE
  8
0
 62
     0
 10
155.207
 20
63.7191
 30
0.0
 11
155.207
 21
64.7181
 31
0.0
  0
LINE
  8
0
 62
     0
 10
155.207
 20
64.7181
 30
0.0
 11
141.206
 21
64.7181
 31
0.0
  0
LINE
  8
0
 62
     0
 10
160.256
 20
64.7181
 30
0.0
 11
160.256
 21
63.7191
 31
0.0
  0
LINE
  8
0
 62
     0
 10
160.256
 20
63.7191
 30
0.0
 11
159.457
 21
63.7191
 31
0.0
  0
LINE
  8
0
 62
     0
 10
159.457
 20
63.7191
 30
0.0
 11
159.457
 21
60.6171
 31
0.0
  0
LINE
  8
0
 62
     0
 10
159.457
 20
60.6171
 30
0.0
 11
160.256
 21
60.6171
 31
0.0
  0
LINE
  8
0
 62
     0
 10
160.256
 20
60.6171
 30
0.0
 11
160.256
 21
54.8171
 31
0.0
  0
LINE
  8
0
 62
     0
 10
160.256
 20
54.8171
 30
0.0
 11
159.457
 21
54.8171
 31
0.0
  0
LINE
  8
0
 62
     0
 10
159.457
 20
54.8171
 30
0.0
 11
159.457
 21
51.7179
 31
0.0
  0
LINE
  8
0
 62
     0
 10
159.457
 20
51.7179
 30
0.0
 11
160.256
 21
51.7179
 31
0.0
  0
LINE
  8
0
 62
     0
 10
160.256
 20
51.7179
 30
0.0
 11
160.256
 21
50.7175
 31
0.0
  0
LINE
  8
0
 62
     0
 10
160.256
 20
50.7175
 30
0.0
 11
174.257
 21
50.7175
 31
0.0
  0
LINE
  8
0
 62
     0
 10
174.257
 20
50.7175
 30
0.0
 11
174.257
 21
51.7179
 31
0.0
  0
LINE
  8
0
 62
     0
 10
174.257
 20
51.7179
 30
0.0
 11
175.056
 21
51.7179
 31
0.0
  0
LINE
  8
0
 62
     0
 10
175.056
 20
51.7179
 30
0.0
 11
175.056
 21
54.8171
 31
0.0
  0
LINE
  8
0
 62
     0
 10
175.056
 20
54.8171
 30
0.0
 11
174.257
 21
54.8171
 31
0.0
  0
LINE
  8
0
 62
     0
 10
174.257
 20
54.8171
 30
0.0
 11
174.257
 21
60.6171
 31
0.0
  0
LINE
  8
0
 62
     0
 10
174.257
 20
60.6171
 30
0.0
 11
175.056
 21
60.6171
 31
0.0
  0
LINE
  8
0
 62
     0
 10
175.056
 20
60.6171
 30
0.0
 11
175.056
 21
63.7191
 31
0.0
  0
LINE
  8
0
 62
     0
 10
175.056
 20
63.7191
 30
0.0
 11
174.257
 21
63.7191
 31
0.0
  0
LINE
  8
0
 62
     0
 10
174.257
 20
63.7191
 30
0.0
 11
174.257
 21
64.7181
 31
0.0
  0
LINE
  8
0
 62
     0
 10
174.257
 20
64.7181
 30
0.0
 11
160.256
 21
64.7181
 31
0.0
  0
LINE
  8
0
 62
     0
 10
179.306
 20
64.7181
 30
0.0
 11
179.306
 21
63.7191
 31
0.0
  0
LINE
  8
0
 62
     0
 10
179.306
 20
63.7191
 30
0.0
 11
178.507
 21
63.7191
 31
0.0
  0
LINE
  8
0
 62
     0
 10
178.507
 20
63.7191
 30
0.0
 11
178.507
 21
60.6171
 31
0.0
  0
LINE
  8
0
 62
     0
 10
178.507
 20
60.6171
 30
0.0
 11
179.306
 21
60.6171
 31
0.0
  0
LINE
  8
0
 62
     0
 10
179.306
 20
60.6171
 30
0.0
 11
179.306
 21
54.8171
 31
0.0
  0
LINE
  8
0
 62
     0
 10
179.306
 20
54.8171
 30
0.0
 11
178.507
 21
54.8171
 31
0.0
  0
LINE
  8
0
 62
     0
 10
178.507
 20
54.8171
 30
0.0
 11
178.507
 21
51.7179
 31
0.0
  0
LINE
  8
0
 62
     0
 10
178.507
 20
51.7179
 30
0.0
 11
179.306
 21
51.7179
 31
0.0
  0
LINE
  8
0
 62
     0
 10
179.306
 20
51.7179
 30
0.0
 11
179.306
 21
50.7175
 31
0.0
  0
LINE
  8
0
 62
     0
 10
179.306
 20
50.7175
 30
0.0
 11
193.307
 21
50.7175
 31
0.0
  0
LINE
  8
0
 62
     0
 10
193.307
 20
50.7175
 30
0.0
 11
193.307
 21
51.7179
 31
0.0
  0
LINE
  8
0
 62
     0
 10
193.307
 20
51.7179
 30
0.0
 11
194.106
 21
51.7179
 31
0.0
  0
LINE
  8
0
 62
     0
 10
194.106
 20
51.7179
 30
0.0
 11
194.106
 21
54.8171
 31
0.0
  0
LINE
  8
0
 62
     0
 10
194.106
 20
54.8171
 30
0.0
 11
193.307
 21
54.8171
 31
0.0
  0
LINE
  8
0
 62
     0
 10
193.307
 20
54.8171
 30
0.0
 11
193.307
 21
60.6171
 31
0.0
  0
LINE
  8
0
 62
     0
 10
193.307
 20
60.6171
 30
0.0
 11
194.106
 21
60.6171
 31
0.0
  0
LINE
  8
0
 62
     0
 10
194.106
 20
60.6171
 30
0.0
 11
194.106
 21
63.7191
 31
0.0
  0
LINE
  8
0
 62
     0
 10
194.106
 20
63.7191
 30
0.0
 11
193.307
 21
63.7191
 31
0.0
  0
LINE
  8
0
 62
     0
 10
193.307
 20
63.7191
 30
0.0
 11
193.307
 21
64.7181
 31
0.0
  0
LINE
  8
0
 62
     0
 10
193.307
 20
64.7181
 30
0.0
 11
179.306
 21
64.7181
 31
0.0
  0
LINE
  8
0
 62
     0
 10
198.356
 20
64.7181
 30
0.0
 11
198.356
 21
63.7191
 31
0.0
  0
LINE
  8
0
 62
     0
 10
198.356
 20
63.7191
 30
0.0
 11
197.557
 21
63.7191
 31
0.0
  0
LINE
  8
0
 62
     0
 10
197.557
 20
63.7191
 30
0.0
 11
197.557
 21
60.6171
 31
0.0
  0
LINE
  8
0
 62
     0
 10
197.557
 20
60.6171
 30
0.0
 11
198.356
 21
60.6171
 31
0.0
  0
LINE
  8
0
 62
     0
 10
198.356
 20
60.6171
 30
0.0
 11
198.356
 21
54.8171
 31
0.0
  0
LINE
  8
0
 62
     0
 10
198.356
 20
54.8171
 30
0.0
 11
197.557
 21
54.8171
 31
0.0
  0
LINE
  8
0
 62
     0
 10
197.557
 20
54.8171
 30
0.0
 11
197.557
 21
51.7179
 31
0.0
  0
LINE
  8
0
 62
     0
 10
197.557
 20
51.7179
 30
0.0
 11
198.356
 21
51.7179
 31
0.0
  0
LINE
  8
0
 62
     0
 10
198.356
 20
51.7179
 30
0.0
 11
198.356
 21
50.7175
 31
0.0
  0
LINE
  8
0
 62
     0
 10
198.356
 20
50.7175
 30
0.0
 11
212.357
 21
50.7175
 31
0.0
  0
LINE
  8
0
 62
     0
 10
212.357
 20
50.7175
 30
0.0
 11
212.357
 21
51.7179
 31
0.0
  0
LINE
  8
0
 62
     0
 10
212.357
 20
51.7179
 30
0.0
 11
213.156
 21
51.7179
 31
0.0
  0
LINE
  8
0
 62
     0
 10
213.156
 20
51.7179
 30
0.0
 11
213.156
 21
54.8171
 31
0.0
  0
LINE
  8
0
 62
     0
 10
213.156
 20
54.8171
 30
0.0
 11
212.357
 21
54.8171
 31
0.0
  0
LINE
  8
0
 62
     0
 10
212.357
 20
54.8171
 30
0.0
 11
212.357
 21
60.6171
 31
0.0
  0
LINE
  8
0
 62
     0
 10
212.357
 20
60.6171
 30
0.0
 11
213.156
 21
60.6171
 31
0.0
  0
LINE
  8
0
 62
     0
 10
213.156
 20
60.6171
 30
0.0
 11
213.156
 21
63.7191
 31
0.0
  0
LINE
  8
0
 62
     0
 10
213.156
 20
63.7191
 30
0.0
 11
212.357
 21
63.7191
 31
0.0
  0
LINE
  8
0
 62
     0
 10
212.357
 20
63.7191
 30
0.0
 11
212.357
 21
64.7181
 31
0.0
  0
LINE
  8
0
 62
     0
 10
212.357
 20
64.7181
 30
0.0
 11
198.356
 21
64.7181
 31
0.0
  0
LINE
  8
0
 62
     0
 10
217.406
 20
64.7181
 30
0.0
 11
217.406
 21
63.7191
 31
0.0
  0
LINE
  8
0
 62
     0
 10
217.406
 20
63.7191
 30
0.0
 11
216.607
 21
63.7191
 31
0.0
  0
LINE
  8
0
 62
     0
 10
216.607
 20
63.7191
 30
0.0
 11
216.607
 21
60.6171
 31
0.0
  0
LINE
  8
0
 62
     0
 10
216.607
 20
60.6171
 30
0.0
 11
217.406
 21
60.6171
 31
0.0
  0
LINE
  8
0
 62
     0
 10
217.406
 20
60.6171
 30
0.0
 11
217.406
 21
54.8171
 31
0.0
  0
LINE
  8
0
 62
     0
 10
217.406
 20
54.8171
 30
0.0
 11
216.607
 21
54.8171
 31
0.0
  0
LINE
  8
0
 62
     0
 10
216.607
 20
54.8171
 30
0.0
 11
216.607
 21
51.7179
 31
0.0
  0
LINE
  8
0
 62
     0
 10
216.607
 20
51.7179
 30
0.0
 11
217.406
 21
51.7179
 31
0.0
  0
LINE
  8
0
 62
     0
 10
217.406
 20
51.7179
 30
0.0
 11
217.406
 21
50.7175
 31
0.0
  0
LINE
  8
0
 62
     0
 10
217.406
 20
50.7175
 30
0.0
 11
231.407
 21
50.7175
 31
0.0
  0
LINE
  8
0
 62
     0
 10
231.407
 20
50.7175
 30
0.0
 11
231.407
 21
51.7179
 31
0.0
  0
LINE
  8
0
 62
     0
 10
231.407
 20
51.7179
 30
0.0
 11
232.206
 21
51.7179
 31
0.0
  0
LINE
  8
0
 62
     0
 10
232.206
 20
51.7179
 30
0.0
 11
232.206
 21
54.8171
 31
0.0
  0
LINE
  8
0
 62
     0
 10
232.206
 20
54.8171
 30
0.0
 11
231.407
 21
54.8171
 31
0.0
  0
LINE
  8
0
 62
     0
 10
231.407
 20
54.8171
 30
0.0
 11
231.407
 21
60.6171
 31
0.0
  0
LINE
  8
0
 62
     0
 10
231.407
 20
60.6171
 30
0.0
 11
232.206
 21
60.6171
 31
0.0
  0
LINE
  8
0
 62
     0
 10
232.206
 20
60.6171
 30
0.0
 11
232.206
 21
63.7191
 31
0.0
  0
LINE
  8
0
 62
     0
 10
232.206
 20
63.7191
 30
0.0
 11
231.407
 21
63.7191
 31
0.0
  0
LINE
  8
0
 62
     0
 10
231.407
 20
63.7191
 30
0.0
 11
231.407
 21
64.7181
 31
0.0
  0
LINE
  8
0
 62
     0
 10
231.407
 20
64.7181
 30
0.0
 11
217.406
 21
64.7181
 31
0.0
  0
LINE
  8
0
 62
     0
 10
236.456
 20
64.7181
 30
0.0
 11
236.456
 21
63.7191
 31
0.0
  0
LINE
  8
0
 62
     0
 10
236.456
 20
63.7191
 30
0.0
 11
235.657
 21
63.7191
 31
0.0
  0
LINE
  8
0
 62
     0
 10
235.657
 20
63.7191
 30
0.0
 11
235.657
 21
60.6171
 31
0.0
  0
LINE
  8
0
 62
     0
 10
235.657
 20
60.6171
 30
0.0
 11
236.456
 21
60.6171
 31
0.0
  0
LINE
  8
0
 62
     0
 10
236.456
 20
60.6171
 30
0.0
 11
236.456
 21
54.8171
 31
0.0
  0
LINE
  8
0
 62
     0
 10
236.456
 20
54.8171
 30
0.0
 11
235.657
 21
54.8171
 31
0.0
  0
LINE
  8
0
 62
     0
 10
235.657
 20
54.8171
 30
0.0
 11
235.657
 21
51.7179
 31
0.0
  0
LINE
  8
0
 62
     0
 10
235.657
 20
51.7179
 30
0.0
 11
236.456
 21
51.7179
 31
0.0
  0
LINE
  8
0
 62
     0
 10
236.456
 20
51.7179
 30
0.0
 11
236.456
 21
50.7175
 31
0.0
  0
LINE
  8
0
 62
     0
 10
236.456
 20
50.7175
 30
0.0
 11
250.457
 21
50.7175
 31
0.0
  0
LINE
  8
0
 62
     0
 10
250.457
 20
50.7175
 30
0.0
 11
250.457
 21
51.7179
 31
0.0
  0
LINE
  8
0
 62
     0
 10
250.457
 20
51.7179
 30
0.0
 11
251.256
 21
51.7179
 31
0.0
  0
LINE
  8
0
 62
     0
 10
251.256
 20
51.7179
 30
0.0
 11
251.256
 21
54.8171
 31
0.0
  0
LINE
  8
0
 62
     0
 10
251.256
 20
54.8171
 30
0.0
 11
250.457
 21
54.8171
 31
0.0
  0
LINE
  8
0
 62
     0
 10
250.457
 20
54.8171
 30
0.0
 11
250.457
 21
60.6171
 31
0.0
  0
LINE
  8
0
 62
     0
 10
250.457
 20
60.6171
 30
0.0
 11
251.256
 21
60.6171
 31
0.0
  0
LINE
  8
0
 62
     0
 10
251.256
 20
60.6171
 30
0.0
 11
251.256
 21
63.7191
 31
0.0
  0
LINE
  8
0
 62
     0
 10
251.256
 20
63.7191
 30
0.0
 11
250.457
 21
63.7191
 31
0.0
  0
LINE
  8
0
 62
     0
 10
250.457
 20
63.7191
 30
0.0
 11
250.457
 21
64.7181
 31
0.0
  0
LINE
  8
0
 62
     0
 10
250.457
 20
64.7181
 30
0.0
 11
236.456
 21
64.7181
 31
0.0
  0
LINE
  8
0
 62
     0
 10
17.3812
 20
83.7681
 30
0.0
 11
17.3812
 21
82.7691
 31
0.0
  0
LINE
  8
0
 62
     0
 10
17.3812
 20
82.7691
 30
0.0
 11
16.5819
 21
82.7691
 31
0.0
  0
LINE
  8
0
 62
     0
 10
16.5819
 20
82.7691
 30
0.0
 11
16.5819
 21
79.6671
 31
0.0
  0
LINE
  8
0
 62
     0
 10
16.5819
 20
79.6671
 30
0.0
 11
17.3812
 21
79.6671
 31
0.0
  0
LINE
  8
0
 62
     0
 10
17.3812
 20
79.6671
 30
0.0
 11
17.3812
 21
73.8671
 31
0.0
  0
LINE
  8
0
 62
     0
 10
17.3812
 20
73.8671
 30
0.0
 11
16.5819
 21
73.8671
 31
0.0
  0
LINE
  8
0
 62
     0
 10
16.5819
 20
73.8671
 30
0.0
 11
16.5819
 21
70.7679
 31
0.0
  0
LINE
  8
0
 62
     0
 10
16.5819
 20
70.7679
 30
0.0
 11
17.3812
 21
70.7679
 31
0.0
  0
LINE
  8
0
 62
     0
 10
17.3812
 20
70.7679
 30
0.0
 11
17.3812
 21
69.7675
 31
0.0
  0
LINE
  8
0
 62
     0
 10
17.3812
 20
69.7675
 30
0.0
 11
31.3821
 21
69.7675
 31
0.0
  0
LINE
  8
0
 62
     0
 10
31.3821
 20
69.7675
 30
0.0
 11
31.3821
 21
70.7679
 31
0.0
  0
LINE
  8
0
 62
     0
 10
31.3821
 20
70.7679
 30
0.0
 11
32.1813
 21
70.7679
 31
0.0
  0
LINE
  8
0
 62
     0
 10
32.1813
 20
70.7679
 30
0.0
 11
32.1813
 21
73.8671
 31
0.0
  0
LINE
  8
0
 62
     0
 10
32.1813
 20
73.8671
 30
0.0
 11
31.3821
 21
73.8671
 31
0.0
  0
LINE
  8
0
 62
     0
 10
31.3821
 20
73.8671
 30
0.0
 11
31.3821
 21
79.6671
 31
0.0
  0
LINE
  8
0
 62
     0
 10
31.3821
 20
79.6671
 30
0.0
 11
32.1813
 21
79.6671
 31
0.0
  0
LINE
  8
0
 62
     0
 10
32.1813
 20
79.6671
 30
0.0
 11
32.1813
 21
82.7691
 31
0.0
  0
LINE
  8
0
 62
     0
 10
32.1813
 20
82.7691
 30
0.0
 11
31.3821
 21
82.7691
 31
0.0
  0
LINE
  8
0
 62
     0
 10
31.3821
 20
82.7691
 30
0.0
 11
31.3821
 21
83.7681
 31
0.0
  0
LINE
  8
0
 62
     0
 10
31.3821
 20
83.7681
 30
0.0
 11
17.3812
 21
83.7681
 31
0.0
  0
LINE
  8
0
 62
     0
 10
41.1949
 20
83.7681
 30
0.0
 11
41.1949
 21
82.7691
 31
0.0
  0
LINE
  8
0
 62
     0
 10
41.1949
 20
82.7691
 30
0.0
 11
40.3945
 21
82.7691
 31
0.0
  0
LINE
  8
0
 62
     0
 10
40.3945
 20
82.7691
 30
0.0
 11
40.3945
 21
79.6671
 31
0.0
  0
LINE
  8
0
 62
     0
 10
40.3945
 20
79.6671
 30
0.0
 11
41.1949
 21
79.6671
 31
0.0
  0
LINE
  8
0
 62
     0
 10
41.1949
 20
79.6671
 30
0.0
 11
41.1949
 21
73.8671
 31
0.0
  0
LINE
  8
0
 62
     0
 10
41.1949
 20
73.8671
 30
0.0
 11
40.3945
 21
73.8671
 31
0.0
  0
LINE
  8
0
 62
     0
 10
40.3945
 20
73.8671
 30
0.0
 11
40.3945
 21
70.7679
 31
0.0
  0
LINE
  8
0
 62
     0
 10
40.3945
 20
70.7679
 30
0.0
 11
41.1949
 21
70.7679
 31
0.0
  0
LINE
  8
0
 62
     0
 10
41.1949
 20
70.7679
 30
0.0
 11
41.1949
 21
69.7675
 31
0.0
  0
LINE
  8
0
 62
     0
 10
41.1949
 20
69.7675
 30
0.0
 11
55.1946
 21
69.7675
 31
0.0
  0
LINE
  8
0
 62
     0
 10
55.1946
 20
69.7675
 30
0.0
 11
55.1946
 21
70.7679
 31
0.0
  0
LINE
  8
0
 62
     0
 10
55.1946
 20
70.7679
 30
0.0
 11
55.9954
 21
70.7679
 31
0.0
  0
LINE
  8
0
 62
     0
 10
55.9954
 20
70.7679
 30
0.0
 11
55.9954
 21
73.8671
 31
0.0
  0
LINE
  8
0
 62
     0
 10
55.9954
 20
73.8671
 30
0.0
 11
55.1946
 21
73.8671
 31
0.0
  0
LINE
  8
0
 62
     0
 10
55.1946
 20
73.8671
 30
0.0
 11
55.1946
 21
79.6671
 31
0.0
  0
LINE
  8
0
 62
     0
 10
55.1946
 20
79.6671
 30
0.0
 11
55.9954
 21
79.6671
 31
0.0
  0
LINE
  8
0
 62
     0
 10
55.9954
 20
79.6671
 30
0.0
 11
55.9954
 21
82.7691
 31
0.0
  0
LINE
  8
0
 62
     0
 10
55.9954
 20
82.7691
 30
0.0
 11
55.1946
 21
82.7691
 31
0.0
  0
LINE
  8
0
 62
     0
 10
55.1946
 20
82.7691
 30
0.0
 11
55.1946
 21
83.7681
 31
0.0
  0
LINE
  8
0
 62
     0
 10
55.1946
 20
83.7681
 30
0.0
 11
41.1949
 21
83.7681
 31
0.0
  0
LINE
  8
0
 62
     0
 10
60.2449
 20
83.7681
 30
0.0
 11
60.2449
 21
82.7691
 31
0.0
  0
LINE
  8
0
 62
     0
 10
60.2449
 20
82.7691
 30
0.0
 11
59.4445
 21
82.7691
 31
0.0
  0
LINE
  8
0
 62
     0
 10
59.4445
 20
82.7691
 30
0.0
 11
59.4445
 21
79.6671
 31
0.0
  0
LINE
  8
0
 62
     0
 10
59.4445
 20
79.6671
 30
0.0
 11
60.2449
 21
79.6671
 31
0.0
  0
LINE
  8
0
 62
     0
 10
60.2449
 20
79.6671
 30
0.0
 11
60.2449
 21
73.8671
 31
0.0
  0
LINE
  8
0
 62
     0
 10
60.2449
 20
73.8671
 30
0.0
 11
59.4445
 21
73.8671
 31
0.0
  0
LINE
  8
0
 62
     0
 10
59.4445
 20
73.8671
 30
0.0
 11
59.4445
 21
70.7679
 31
0.0
  0
LINE
  8
0
 62
     0
 10
59.4445
 20
70.7679
 30
0.0
 11
60.2449
 21
70.7679
 31
0.0
  0
LINE
  8
0
 62
     0
 10
60.2449
 20
70.7679
 30
0.0
 11
60.2449
 21
69.7675
 31
0.0
  0
LINE
  8
0
 62
     0
 10
60.2449
 20
69.7675
 30
0.0
 11
74.2446
 21
69.7675
 31
0.0
  0
LINE
  8
0
 62
     0
 10
74.2446
 20
69.7675
 30
0.0
 11
74.2446
 21
70.7679
 31
0.0
  0
LINE
  8
0
 62
     0
 10
74.2446
 20
70.7679
 30
0.0
 11
75.0454
 21
70.7679
 31
0.0
  0
LINE
  8
0
 62
     0
 10
75.0454
 20
70.7679
 30
0.0
 11
75.0454
 21
73.8671
 31
0.0
  0
LINE
  8
0
 62
     0
 10
75.0454
 20
73.8671
 30
0.0
 11
74.2446
 21
73.8671
 31
0.0
  0
LINE
  8
0
 62
     0
 10
74.2446
 20
73.8671
 30
0.0
 11
74.2446
 21
79.6671
 31
0.0
  0
LINE
  8
0
 62
     0
 10
74.2446
 20
79.6671
 30
0.0
 11
75.0454
 21
79.6671
 31
0.0
  0
LINE
  8
0
 62
     0
 10
75.0454
 20
79.6671
 30
0.0
 11
75.0454
 21
82.7691
 31
0.0
  0
LINE
  8
0
 62
     0
 10
75.0454
 20
82.7691
 30
0.0
 11
74.2446
 21
82.7691
 31
0.0
  0
LINE
  8
0
 62
     0
 10
74.2446
 20
82.7691
 30
0.0
 11
74.2446
 21
83.7681
 31
0.0
  0
LINE
  8
0
 62
     0
 10
74.2446
 20
83.7681
 30
0.0
 11
60.2449
 21
83.7681
 31
0.0
  0
LINE
  8
0
 62
     0
 10
79.2949
 20
83.7681
 30
0.0
 11
79.2949
 21
82.7691
 31
0.0
  0
LINE
  8
0
 62
     0
 10
79.2949
 20
82.7691
 30
0.0
 11
78.4945
 21
82.7691
 31
0.0
  0
LINE
  8
0
 62
     0
 10
78.4945
 20
82.7691
 30
0.0
 11
78.4945
 21
79.6671
 31
0.0
  0
LINE
  8
0
 62
     0
 10
78.4945
 20
79.6671
 30
0.0
 11
79.2949
 21
79.6671
 31
0.0
  0
LINE
  8
0
 62
     0
 10
79.2949
 20
79.6671
 30
0.0
 11
79.2949
 21
73.8671
 31
0.0
  0
LINE
  8
0
 62
     0
 10
79.2949
 20
73.8671
 30
0.0
 11
78.4945
 21
73.8671
 31
0.0
  0
LINE
  8
0
 62
     0
 10
78.4945
 20
73.8671
 30
0.0
 11
78.4945
 21
70.7679
 31
0.0
  0
LINE
  8
0
 62
     0
 10
78.4945
 20
70.7679
 30
0.0
 11
79.2949
 21
70.7679
 31
0.0
  0
LINE
  8
0
 62
     0
 10
79.2949
 20
70.7679
 30
0.0
 11
79.2949
 21
69.7675
 31
0.0
  0
LINE
  8
0
 62
     0
 10
79.2949
 20
69.7675
 30
0.0
 11
93.2946
 21
69.7675
 31
0.0
  0
LINE
  8
0
 62
     0
 10
93.2946
 20
69.7675
 30
0.0
 11
93.2946
 21
70.7679
 31
0.0
  0
LINE
  8
0
 62
     0
 10
93.2946
 20
70.7679
 30
0.0
 11
94.0954
 21
70.7679
 31
0.0
  0
LINE
  8
0
 62
     0
 10
94.0954
 20
70.7679
 30
0.0
 11
94.0954
 21
73.8671
 31
0.0
  0
LINE
  8
0
 62
     0
 10
94.0954
 20
73.8671
 30
0.0
 11
93.2946
 21
73.8671
 31
0.0
  0
LINE
  8
0
 62
     0
 10
93.2946
 20
73.8671
 30
0.0
 11
93.2946
 21
79.6671
 31
0.0
  0
LINE
  8
0
 62
     0
 10
93.2946
 20
79.6671
 30
0.0
 11
94.0954
 21
79.6671
 31
0.0
  0
LINE
  8
0
 62
     0
 10
94.0954
 20
79.6671
 30
0.0
 11
94.0954
 21
82.7691
 31
0.0
  0
LINE
  8
0
 62
     0
 10
94.0954
 20
82.7691
 30
0.0
 11
93.2946
 21
82.7691
 31
0.0
  0
LINE
  8
0
 62
     0
 10
93.2946
 20
82.7691
 30
0.0
 11
93.2946
 21
83.7681
 31
0.0
  0
LINE
  8
0
 62
     0
 10
93.2946
 20
83.7681
 30
0.0
 11
79.2949
 21
83.7681
 31
0.0
  0
LINE
  8
0
 62
     0
 10
98.3449
 20
83.7681
 30
0.0
 11
98.3449
 21
82.7691
 31
0.0
  0
LINE
  8
0
 62
     0
 10
98.3449
 20
82.7691
 30
0.0
 11
97.5445
 21
82.7691
 31
0.0
  0
LINE
  8
0
 62
     0
 10
97.5445
 20
82.7691
 30
0.0
 11
97.5445
 21
79.6671
 31
0.0
  0
LINE
  8
0
 62
     0
 10
97.5445
 20
79.6671
 30
0.0
 11
98.3449
 21
79.6671
 31
0.0
  0
LINE
  8
0
 62
     0
 10
98.3449
 20
79.6671
 30
0.0
 11
98.3449
 21
73.8671
 31
0.0
  0
LINE
  8
0
 62
     0
 10
98.3449
 20
73.8671
 30
0.0
 11
97.5445
 21
73.8671
 31
0.0
  0
LINE
  8
0
 62
     0
 10
97.5445
 20
73.8671
 30
0.0
 11
97.5445
 21
70.7679
 31
0.0
  0
LINE
  8
0
 62
     0
 10
97.5445
 20
70.7679
 30
0.0
 11
98.3449
 21
70.7679
 31
0.0
  0
LINE
  8
0
 62
     0
 10
98.3449
 20
70.7679
 30
0.0
 11
98.3449
 21
69.7675
 31
0.0
  0
LINE
  8
0
 62
     0
 10
98.3449
 20
69.7675
 30
0.0
 11
112.345
 21
69.7675
 31
0.0
  0
LINE
  8
0
 62
     0
 10
112.345
 20
69.7675
 30
0.0
 11
112.345
 21
70.7679
 31
0.0
  0
LINE
  8
0
 62
     0
 10
112.345
 20
70.7679
 30
0.0
 11
113.145
 21
70.7679
 31
0.0
  0
LINE
  8
0
 62
     0
 10
113.145
 20
70.7679
 30
0.0
 11
113.145
 21
73.8671
 31
0.0
  0
LINE
  8
0
 62
     0
 10
113.145
 20
73.8671
 30
0.0
 11
112.345
 21
73.8671
 31
0.0
  0
LINE
  8
0
 62
     0
 10
112.345
 20
73.8671
 30
0.0
 11
112.345
 21
79.6671
 31
0.0
  0
LINE
  8
0
 62
     0
 10
112.345
 20
79.6671
 30
0.0
 11
113.145
 21
79.6671
 31
0.0
  0
LINE
  8
0
 62
     0
 10
113.145
 20
79.6671
 30
0.0
 11
113.145
 21
82.7691
 31
0.0
  0
LINE
  8
0
 62
     0
 10
113.145
 20
82.7691
 30
0.0
 11
112.345
 21
82.7691
 31
0.0
  0
LINE
  8
0
 62
     0
 10
112.345
 20
82.7691
 30
0.0
 11
112.345
 21
83.7681
 31
0.0
  0
LINE
  8
0
 62
     0
 10
112.345
 20
83.7681
 30
0.0
 11
98.3449
 21
83.7681
 31
0.0
  0
LINE
  8
0
 62
     0
 10
117.395
 20
83.7681
 30
0.0
 11
117.395
 21
82.7691
 31
0.0
  0
LINE
  8
0
 62
     0
 10
117.395
 20
82.7691
 30
0.0
 11
116.594
 21
82.7691
 31
0.0
  0
LINE
  8
0
 62
     0
 10
116.594
 20
82.7691
 30
0.0
 11
116.594
 21
79.6671
 31
0.0
  0
LINE
  8
0
 62
     0
 10
116.594
 20
79.6671
 30
0.0
 11
117.395
 21
79.6671
 31
0.0
  0
LINE
  8
0
 62
     0
 10
117.395
 20
79.6671
 30
0.0
 11
117.395
 21
73.8671
 31
0.0
  0
LINE
  8
0
 62
     0
 10
117.395
 20
73.8671
 30
0.0
 11
116.594
 21
73.8671
 31
0.0
  0
LINE
  8
0
 62
     0
 10
116.594
 20
73.8671
 30
0.0
 11
116.594
 21
70.7679
 31
0.0
  0
LINE
  8
0
 62
     0
 10
116.594
 20
70.7679
 30
0.0
 11
117.395
 21
70.7679
 31
0.0
  0
LINE
  8
0
 62
     0
 10
117.395
 20
70.7679
 30
0.0
 11
117.395
 21
69.7675
 31
0.0
  0
LINE
  8
0
 62
     0
 10
117.395
 20
69.7675
 30
0.0
 11
131.395
 21
69.7675
 31
0.0
  0
LINE
  8
0
 62
     0
 10
131.395
 20
69.7675
 30
0.0
 11
131.395
 21
70.7679
 31
0.0
  0
LINE
  8
0
 62
     0
 10
131.395
 20
70.7679
 30
0.0
 11
132.195
 21
70.7679
 31
0.0
  0
LINE
  8
0
 62
     0
 10
132.195
 20
70.7679
 30
0.0
 11
132.195
 21
73.8671
 31
0.0
  0
LINE
  8
0
 62
     0
 10
132.195
 20
73.8671
 30
0.0
 11
131.395
 21
73.8671
 31
0.0
  0
LINE
  8
0
 62
     0
 10
131.395
 20
73.8671
 30
0.0
 11
131.395
 21
79.6671
 31
0.0
  0
LINE
  8
0
 62
     0
 10
131.395
 20
79.6671
 30
0.0
 11
132.195
 21
79.6671
 31
0.0
  0
LINE
  8
0
 62
     0
 10
132.195
 20
79.6671
 30
0.0
 11
132.195
 21
82.7691
 31
0.0
  0
LINE
  8
0
 62
     0
 10
132.195
 20
82.7691
 30
0.0
 11
131.395
 21
82.7691
 31
0.0
  0
LINE
  8
0
 62
     0
 10
131.395
 20
82.7691
 30
0.0
 11
131.395
 21
83.7681
 31
0.0
  0
LINE
  8
0
 62
     0
 10
131.395
 20
83.7681
 30
0.0
 11
117.395
 21
83.7681
 31
0.0
  0
LINE
  8
0
 62
     0
 10
136.445
 20
83.7681
 30
0.0
 11
136.445
 21
82.7691
 31
0.0
  0
LINE
  8
0
 62
     0
 10
136.445
 20
82.7691
 30
0.0
 11
135.644
 21
82.7691
 31
0.0
  0
LINE
  8
0
 62
     0
 10
135.644
 20
82.7691
 30
0.0
 11
135.644
 21
79.6671
 31
0.0
  0
LINE
  8
0
 62
     0
 10
135.644
 20
79.6671
 30
0.0
 11
136.445
 21
79.6671
 31
0.0
  0
LINE
  8
0
 62
     0
 10
136.445
 20
79.6671
 30
0.0
 11
136.445
 21
73.8671
 31
0.0
  0
LINE
  8
0
 62
     0
 10
136.445
 20
73.8671
 30
0.0
 11
135.644
 21
73.8671
 31
0.0
  0
LINE
  8
0
 62
     0
 10
135.644
 20
73.8671
 30
0.0
 11
135.644
 21
70.7679
 31
0.0
  0
LINE
  8
0
 62
     0
 10
135.644
 20
70.7679
 30
0.0
 11
136.445
 21
70.7679
 31
0.0
  0
LINE
  8
0
 62
     0
 10
136.445
 20
70.7679
 30
0.0
 11
136.445
 21
69.7675
 31
0.0
  0
LINE
  8
0
 62
     0
 10
136.445
 20
69.7675
 30
0.0
 11
150.445
 21
69.7675
 31
0.0
  0
LINE
  8
0
 62
     0
 10
150.445
 20
69.7675
 30
0.0
 11
150.445
 21
70.7679
 31
0.0
  0
LINE
  8
0
 62
     0
 10
150.445
 20
70.7679
 30
0.0
 11
151.245
 21
70.7679
 31
0.0
  0
LINE
  8
0
 62
     0
 10
151.245
 20
70.7679
 30
0.0
 11
151.245
 21
73.8671
 31
0.0
  0
LINE
  8
0
 62
     0
 10
151.245
 20
73.8671
 30
0.0
 11
150.445
 21
73.8671
 31
0.0
  0
LINE
  8
0
 62
     0
 10
150.445
 20
73.8671
 30
0.0
 11
150.445
 21
79.6671
 31
0.0
  0
LINE
  8
0
 62
     0
 10
150.445
 20
79.6671
 30
0.0
 11
151.245
 21
79.6671
 31
0.0
  0
LINE
  8
0
 62
     0
 10
151.245
 20
79.6671
 30
0.0
 11
151.245
 21
82.7691
 31
0.0
  0
LINE
  8
0
 62
     0
 10
151.245
 20
82.7691
 30
0.0
 11
150.445
 21
82.7691
 31
0.0
  0
LINE
  8
0
 62
     0
 10
150.445
 20
82.7691
 30
0.0
 11
150.445
 21
83.7681
 31
0.0
  0
LINE
  8
0
 62
     0
 10
150.445
 20
83.7681
 30
0.0
 11
136.445
 21
83.7681
 31
0.0
  0
LINE
  8
0
 62
     0
 10
155.495
 20
83.7681
 30
0.0
 11
155.495
 21
82.7691
 31
0.0
  0
LINE
  8
0
 62
     0
 10
155.495
 20
82.7691
 30
0.0
 11
154.694
 21
82.7691
 31
0.0
  0
LINE
  8
0
 62
     0
 10
154.694
 20
82.7691
 30
0.0
 11
154.694
 21
79.6671
 31
0.0
  0
LINE
  8
0
 62
     0
 10
154.694
 20
79.6671
 30
0.0
 11
155.495
 21
79.6671
 31
0.0
  0
LINE
  8
0
 62
     0
 10
155.495
 20
79.6671
 30
0.0
 11
155.495
 21
73.8671
 31
0.0
  0
LINE
  8
0
 62
     0
 10
155.495
 20
73.8671
 30
0.0
 11
154.694
 21
73.8671
 31
0.0
  0
LINE
  8
0
 62
     0
 10
154.694
 20
73.8671
 30
0.0
 11
154.694
 21
70.7679
 31
0.0
  0
LINE
  8
0
 62
     0
 10
154.694
 20
70.7679
 30
0.0
 11
155.495
 21
70.7679
 31
0.0
  0
LINE
  8
0
 62
     0
 10
155.495
 20
70.7679
 30
0.0
 11
155.495
 21
69.7675
 31
0.0
  0
LINE
  8
0
 62
     0
 10
155.495
 20
69.7675
 30
0.0
 11
169.495
 21
69.7675
 31
0.0
  0
LINE
  8
0
 62
     0
 10
169.495
 20
69.7675
 30
0.0
 11
169.495
 21
70.7679
 31
0.0
  0
LINE
  8
0
 62
     0
 10
169.495
 20
70.7679
 30
0.0
 11
170.295
 21
70.7679
 31
0.0
  0
LINE
  8
0
 62
     0
 10
170.295
 20
70.7679
 30
0.0
 11
170.295
 21
73.8671
 31
0.0
  0
LINE
  8
0
 62
     0
 10
170.295
 20
73.8671
 30
0.0
 11
169.495
 21
73.8671
 31
0.0
  0
LINE
  8
0
 62
     0
 10
169.495
 20
73.8671
 30
0.0
 11
169.495
 21
79.6671
 31
0.0
  0
LINE
  8
0
 62
     0
 10
169.495
 20
79.6671
 30
0.0
 11
170.295
 21
79.6671
 31
0.0
  0
LINE
  8
0
 62
     0
 10
170.295
 20
79.6671
 30
0.0
 11
170.295
 21
82.7691
 31
0.0
  0
LINE
  8
0
 62
     0
 10
170.295
 20
82.7691
 30
0.0
 11
169.495
 21
82.7691
 31
0.0
  0
LINE
  8
0
 62
     0
 10
169.495
 20
82.7691
 30
0.0
 11
169.495
 21
83.7681
 31
0.0
  0
LINE
  8
0
 62
     0
 10
169.495
 20
83.7681
 30
0.0
 11
155.495
 21
83.7681
 31
0.0
  0
LINE
  8
0
 62
     0
 10
174.545
 20
83.7681
 30
0.0
 11
174.545
 21
82.7691
 31
0.0
  0
LINE
  8
0
 62
     0
 10
174.545
 20
82.7691
 30
0.0
 11
173.744
 21
82.7691
 31
0.0
  0
LINE
  8
0
 62
     0
 10
173.744
 20
82.7691
 30
0.0
 11
173.744
 21
79.6671
 31
0.0
  0
LINE
  8
0
 62
     0
 10
173.744
 20
79.6671
 30
0.0
 11
174.545
 21
79.6671
 31
0.0
  0
LINE
  8
0
 62
     0
 10
174.545
 20
79.6671
 30
0.0
 11
174.545
 21
73.8671
 31
0.0
  0
LINE
  8
0
 62
     0
 10
174.545
 20
73.8671
 30
0.0
 11
173.744
 21
73.8671
 31
0.0
  0
LINE
  8
0
 62
     0
 10
173.744
 20
73.8671
 30
0.0
 11
173.744
 21
70.7679
 31
0.0
  0
LINE
  8
0
 62
     0
 10
173.744
 20
70.7679
 30
0.0
 11
174.545
 21
70.7679
 31
0.0
  0
LINE
  8
0
 62
     0
 10
174.545
 20
70.7679
 30
0.0
 11
174.545
 21
69.7675
 31
0.0
  0
LINE
  8
0
 62
     0
 10
174.545
 20
69.7675
 30
0.0
 11
188.545
 21
69.7675
 31
0.0
  0
LINE
  8
0
 62
     0
 10
188.545
 20
69.7675
 30
0.0
 11
188.545
 21
70.7679
 31
0.0
  0
LINE
  8
0
 62
     0
 10
188.545
 20
70.7679
 30
0.0
 11
189.345
 21
70.7679
 31
0.0
  0
LINE
  8
0
 62
     0
 10
189.345
 20
70.7679
 30
0.0
 11
189.345
 21
73.8671
 31
0.0
  0
LINE
  8
0
 62
     0
 10
189.345
 20
73.8671
 30
0.0
 11
188.545
 21
73.8671
 31
0.0
  0
LINE
  8
0
 62
     0
 10
188.545
 20
73.8671
 30
0.0
 11
188.545
 21
79.6671
 31
0.0
  0
LINE
  8
0
 62
     0
 10
188.545
 20
79.6671
 30
0.0
 11
189.345
 21
79.6671
 31
0.0
  0
LINE
  8
0
 62
     0
 10
189.345
 20
79.6671
 30
0.0
 11
189.345
 21
82.7691
 31
0.0
  0
LINE
  8
0
 62
     0
 10
189.345
 20
82.7691
 30
0.0
 11
188.545
 21
82.7691
 31
0.0
  0
LINE
  8
0
 62
     0
 10
188.545
 20
82.7691
 30
0.0
 11
188.545
 21
83.7681
 31
0.0
  0
LINE
  8
0
 62
     0
 10
188.545
 20
83.7681
 30
0.0
 11
174.545
 21
83.7681
 31
0.0
  0
LINE
  8
0
 62
     0
 10
193.595
 20
83.7681
 30
0.0
 11
193.595
 21
82.7691
 31
0.0
  0
LINE
  8
0
 62
     0
 10
193.595
 20
82.7691
 30
0.0
 11
192.794
 21
82.7691
 31
0.0
  0
LINE
  8
0
 62
     0
 10
192.794
 20
82.7691
 30
0.0
 11
192.794
 21
79.6671
 31
0.0
  0
LINE
  8
0
 62
     0
 10
192.794
 20
79.6671
 30
0.0
 11
193.595
 21
79.6671
 31
0.0
  0
LINE
  8
0
 62
     0
 10
193.595
 20
79.6671
 30
0.0
 11
193.595
 21
73.8671
 31
0.0
  0
LINE
  8
0
 62
     0
 10
193.595
 20
73.8671
 30
0.0
 11
192.794
 21
73.8671
 31
0.0
  0
LINE
  8
0
 62
     0
 10
192.794
 20
73.8671
 30
0.0
 11
192.794
 21
70.7679
 31
0.0
  0
LINE
  8
0
 62
     0
 10
192.794
 20
70.7679
 30
0.0
 11
193.595
 21
70.7679
 31
0.0
  0
LINE
  8
0
 62
     0
 10
193.595
 20
70.7679
 30
0.0
 11
193.595
 21
69.7675
 31
0.0
  0
LINE
  8
0
 62
     0
 10
193.595
 20
69.7675
 30
0.0
 11
207.595
 21
69.7675
 31
0.0
  0
LINE
  8
0
 62
     0
 10
207.595
 20
69.7675
 30
0.0
 11
207.595
 21
70.7679
 31
0.0
  0
LINE
  8
0
 62
     0
 10
207.595
 20
70.7679
 30
0.0
 11
208.395
 21
70.7679
 31
0.0
  0
LINE
  8
0
 62
     0
 10
208.395
 20
70.7679
 30
0.0
 11
208.395
 21
73.8671
 31
0.0
  0
LINE
  8
0
 62
     0
 10
208.395
 20
73.8671
 30
0.0
 11
207.595
 21
73.8671
 31
0.0
  0
LINE
  8
0
 62
     0
 10
207.595
 20
73.8671
 30
0.0
 11
207.595
 21
79.6671
 31
0.0
  0
LINE
  8
0
 62
     0
 10
207.595
 20
79.6671
 30
0.0
 11
208.395
 21
79.6671
 31
0.0
  0
LINE
  8
0
 62
     0
 10
208.395
 20
79.6671
 30
0.0
 11
208.395
 21
82.7691
 31
0.0
  0
LINE
  8
0
 62
     0
 10
208.395
 20
82.7691
 30
0.0
 11
207.595
 21
82.7691
 31
0.0
  0
LINE
  8
0
 62
     0
 10
207.595
 20
82.7691
 30
0.0
 11
207.595
 21
83.7681
 31
0.0
  0
LINE
  8
0
 62
     0
 10
207.595
 20
83.7681
 30
0.0
 11
193.595
 21
83.7681
 31
0.0
  0
LINE
  8
0
 62
     0
 10
212.645
 20
83.7681
 30
0.0
 11
212.645
 21
82.7691
 31
0.0
  0
LINE
  8
0
 62
     0
 10
212.645
 20
82.7691
 30
0.0
 11
211.844
 21
82.7691
 31
0.0
  0
LINE
  8
0
 62
     0
 10
211.844
 20
82.7691
 30
0.0
 11
211.844
 21
79.6671
 31
0.0
  0
LINE
  8
0
 62
     0
 10
211.844
 20
79.6671
 30
0.0
 11
212.645
 21
79.6671
 31
0.0
  0
LINE
  8
0
 62
     0
 10
212.645
 20
79.6671
 30
0.0
 11
212.645
 21
73.8671
 31
0.0
  0
LINE
  8
0
 62
     0
 10
212.645
 20
73.8671
 30
0.0
 11
211.844
 21
73.8671
 31
0.0
  0
LINE
  8
0
 62
     0
 10
211.844
 20
73.8671
 30
0.0
 11
211.844
 21
70.7679
 31
0.0
  0
LINE
  8
0
 62
     0
 10
211.844
 20
70.7679
 30
0.0
 11
212.645
 21
70.7679
 31
0.0
  0
LINE
  8
0
 62
     0
 10
212.645
 20
70.7679
 30
0.0
 11
212.645
 21
69.7675
 31
0.0
  0
LINE
  8
0
 62
     0
 10
212.645
 20
69.7675
 30
0.0
 11
226.645
 21
69.7675
 31
0.0
  0
LINE
  8
0
 62
     0
 10
226.645
 20
69.7675
 30
0.0
 11
226.645
 21
70.7679
 31
0.0
  0
LINE
  8
0
 62
     0
 10
226.645
 20
70.7679
 30
0.0
 11
227.445
 21
70.7679
 31
0.0
  0
LINE
  8
0
 62
     0
 10
227.445
 20
70.7679
 30
0.0
 11
227.445
 21
73.8671
 31
0.0
  0
LINE
  8
0
 62
     0
 10
227.445
 20
73.8671
 30
0.0
 11
226.645
 21
73.8671
 31
0.0
  0
LINE
  8
0
 62
     0
 10
226.645
 20
73.8671
 30
0.0
 11
226.645
 21
79.6671
 31
0.0
  0
LINE
  8
0
 62
     0
 10
226.645
 20
79.6671
 30
0.0
 11
227.445
 21
79.6671
 31
0.0
  0
LINE
  8
0
 62
     0
 10
227.445
 20
79.6671
 30
0.0
 11
227.445
 21
82.7691
 31
0.0
  0
LINE
  8
0
 62
     0
 10
227.445
 20
82.7691
 30
0.0
 11
226.645
 21
82.7691
 31
0.0
  0
LINE
  8
0
 62
     0
 10
226.645
 20
82.7691
 30
0.0
 11
226.645
 21
83.7681
 31
0.0
  0
LINE
  8
0
 62
     0
 10
226.645
 20
83.7681
 30
0.0
 11
212.645
 21
83.7681
 31
0.0
  0
LINE
  8
0
 62
     0
 10
231.695
 20
83.7681
 30
0.0
 11
231.695
 21
82.7691
 31
0.0
  0
LINE
  8
0
 62
     0
 10
231.695
 20
82.7691
 30
0.0
 11
230.894
 21
82.7691
 31
0.0
  0
LINE
  8
0
 62
     0
 10
230.894
 20
82.7691
 30
0.0
 11
230.894
 21
79.6671
 31
0.0
  0
LINE
  8
0
 62
     0
 10
230.894
 20
79.6671
 30
0.0
 11
231.695
 21
79.6671
 31
0.0
  0
LINE
  8
0
 62
     0
 10
231.695
 20
79.6671
 30
0.0
 11
231.695
 21
73.8671
 31
0.0
  0
LINE
  8
0
 62
     0
 10
231.695
 20
73.8671
 30
0.0
 11
230.894
 21
73.8671
 31
0.0
  0
LINE
  8
0
 62
     0
 10
230.894
 20
73.8671
 30
0.0
 11
230.894
 21
70.7679
 31
0.0
  0
LINE
  8
0
 62
     0
 10
230.894
 20
70.7679
 30
0.0
 11
231.695
 21
70.7679
 31
0.0
  0
LINE
  8
0
 62
     0
 10
231.695
 20
70.7679
 30
0.0
 11
231.695
 21
69.7675
 31
0.0
  0
LINE
  8
0
 62
     0
 10
231.695
 20
69.7675
 30
0.0
 11
245.695
 21
69.7675
 31
0.0
  0
LINE
  8
0
 62
     0
 10
245.695
 20
69.7675
 30
0.0
 11
245.695
 21
70.7679
 31
0.0
  0
LINE
  8
0
 62
     0
 10
245.695
 20
70.7679
 30
0.0
 11
246.495
 21
70.7679
 31
0.0
  0
LINE
  8
0
 62
     0
 10
246.495
 20
70.7679
 30
0.0
 11
246.495
 21
73.8671
 31
0.0
  0
LINE
  8
0
 62
     0
 10
246.495
 20
73.8671
 30
0.0
 11
245.695
 21
73.8671
 31
0.0
  0
LINE
  8
0
 62
     0
 10
245.695
 20
73.8671
 30
0.0
 11
245.695
 21
79.6671
 31
0.0
  0
LINE
  8
0
 62
     0
 10
245.695
 20
79.6671
 30
0.0
 11
246.495
 21
79.6671
 31
0.0
  0
LINE
  8
0
 62
     0
 10
246.495
 20
79.6671
 30
0.0
 11
246.495
 21
82.7691
 31
0.0
  0
LINE
  8
0
 62
     0
 10
246.495
 20
82.7691
 30
0.0
 11
245.695
 21
82.7691
 31
0.0
  0
LINE
  8
0
 62
     0
 10
245.695
 20
82.7691
 30
0.0
 11
245.695
 21
83.7681
 31
0.0
  0
LINE
  8
0
 62
     0
 10
245.695
 20
83.7681
 30
0.0
 11
231.695
 21
83.7681
 31
0.0
  0
LINE
  8
0
 62
     0
 10
250.745
 20
83.7681
 30
0.0
 11
250.745
 21
82.7691
 31
0.0
  0
LINE
  8
0
 62
     0
 10
250.745
 20
82.7691
 30
0.0
 11
249.944
 21
82.7691
 31
0.0
  0
LINE
  8
0
 62
     0
 10
249.944
 20
82.7691
 30
0.0
 11
249.944
 21
79.6671
 31
0.0
  0
LINE
  8
0
 62
     0
 10
249.944
 20
79.6671
 30
0.0
 11
250.745
 21
79.6671
 31
0.0
  0
LINE
  8
0
 62
     0
 10
250.745
 20
79.6671
 30
0.0
 11
250.745
 21
73.8671
 31
0.0
  0
LINE
  8
0
 62
     0
 10
250.745
 20
73.8671
 30
0.0
 11
249.944
 21
73.8671
 31
0.0
  0
LINE
  8
0
 62
     0
 10
249.944
 20
73.8671
 30
0.0
 11
249.944
 21
70.7679
 31
0.0
  0
LINE
  8
0
 62
     0
 10
249.944
 20
70.7679
 30
0.0
 11
250.745
 21
70.7679
 31
0.0
  0
LINE
  8
0
 62
     0
 10
250.745
 20
70.7679
 30
0.0
 11
250.745
 21
69.7675
 31
0.0
  0
LINE
  8
0
 62
     0
 10
250.745
 20
69.7675
 30
0.0
 11
264.745
 21
69.7675
 31
0.0
  0
LINE
  8
0
 62
     0
 10
264.745
 20
69.7675
 30
0.0
 11
264.745
 21
70.7679
 31
0.0
  0
LINE
  8
0
 62
     0
 10
264.745
 20
70.7679
 30
0.0
 11
265.545
 21
70.7679
 31
0.0
  0
LINE
  8
0
 62
     0
 10
265.545
 20
70.7679
 30
0.0
 11
265.545
 21
73.8671
 31
0.0
  0
LINE
  8
0
 62
     0
 10
265.545
 20
73.8671
 30
0.0
 11
264.745
 21
73.8671
 31
0.0
  0
LINE
  8
0
 62
     0
 10
264.745
 20
73.8671
 30
0.0
 11
264.745
 21
79.6671
 31
0.0
  0
LINE
  8
0
 62
     0
 10
264.745
 20
79.6671
 30
0.0
 11
265.545
 21
79.6671
 31
0.0
  0
LINE
  8
0
 62
     0
 10
265.545
 20
79.6671
 30
0.0
 11
265.545
 21
82.7691
 31
0.0
  0
LINE
  8
0
 62
     0
 10
265.545
 20
82.7691
 30
0.0
 11
264.745
 21
82.7691
 31
0.0
  0
LINE
  8
0
 62
     0
 10
264.745
 20
82.7691
 30
0.0
 11
264.745
 21
83.7681
 31
0.0
  0
LINE
  8
0
 62
     0
 10
264.745
 20
83.7681
 30
0.0
 11
250.745
 21
83.7681
 31
0.0
  0
LINE
  8
0
 62
     0
 10
274.556
 20
83.7681
 30
0.0
 11
274.556
 21
82.7691
 31
0.0
  0
LINE
  8
0
 62
     0
 10
274.556
 20
82.7691
 30
0.0
 11
273.757
 21
82.7691
 31
0.0
  0
LINE
  8
0
 62
     0
 10
273.757
 20
82.7691
 30
0.0
 11
273.757
 21
79.6671
 31
0.0
  0
LINE
  8
0
 62
     0
 10
273.757
 20
79.6671
 30
0.0
 11
274.556
 21
79.6671
 31
0.0
  0
LINE
  8
0
 62
     0
 10
274.556
 20
79.6671
 30
0.0
 11
274.556
 21
73.8671
 31
0.0
  0
LINE
  8
0
 62
     0
 10
274.556
 20
73.8671
 30
0.0
 11
273.757
 21
73.8671
 31
0.0
  0
LINE
  8
0
 62
     0
 10
273.757
 20
73.8671
 30
0.0
 11
273.757
 21
70.7679
 31
0.0
  0
LINE
  8
0
 62
     0
 10
273.757
 20
70.7679
 30
0.0
 11
274.556
 21
70.7679
 31
0.0
  0
LINE
  8
0
 62
     0
 10
274.556
 20
70.7679
 30
0.0
 11
274.556
 21
69.7675
 31
0.0
  0
LINE
  8
0
 62
     0
 10
274.556
 20
69.7675
 30
0.0
 11
288.557
 21
69.7675
 31
0.0
  0
LINE
  8
0
 62
     0
 10
288.557
 20
69.7675
 30
0.0
 11
288.557
 21
70.7679
 31
0.0
  0
LINE
  8
0
 62
     0
 10
288.557
 20
70.7679
 30
0.0
 11
289.356
 21
70.7679
 31
0.0
  0
LINE
  8
0
 62
     0
 10
289.356
 20
70.7679
 30
0.0
 11
289.356
 21
73.8671
 31
0.0
  0
LINE
  8
0
 62
     0
 10
289.356
 20
73.8671
 30
0.0
 11
288.557
 21
73.8671
 31
0.0
  0
LINE
  8
0
 62
     0
 10
288.557
 20
73.8671
 30
0.0
 11
288.557
 21
79.6671
 31
0.0
  0
LINE
  8
0
 62
     0
 10
288.557
 20
79.6671
 30
0.0
 11
289.356
 21
79.6671
 31
0.0
  0
LINE
  8
0
 62
     0
 10
289.356
 20
79.6671
 30
0.0
 11
289.356
 21
82.7691
 31
0.0
  0
LINE
  8
0
 62
     0
 10
289.356
 20
82.7691
 30
0.0
 11
288.557
 21
82.7691
 31
0.0
  0
LINE
  8
0
 62
     0
 10
288.557
 20
82.7691
 30
0.0
 11
288.557
 21
83.7681
 31
0.0
  0
LINE
  8
0
 62
     0
 10
288.557
 20
83.7681
 30
0.0
 11
274.556
 21
83.7681
 31
0.0
  0
LINE
  8
0
 62
     0
 10
303.131
 20
83.7681
 30
0.0
 11
303.131
 21
82.7691
 31
0.0
  0
LINE
  8
0
 62
     0
 10
303.131
 20
82.7691
 30
0.0
 11
302.332
 21
82.7691
 31
0.0
  0
LINE
  8
0
 62
     0
 10
302.332
 20
82.7691
 30
0.0
 11
302.332
 21
79.6671
 31
0.0
  0
LINE
  8
0
 62
     0
 10
302.332
 20
79.6671
 30
0.0
 11
303.131
 21
79.6671
 31
0.0
  0
LINE
  8
0
 62
     0
 10
303.131
 20
79.6671
 30
0.0
 11
303.131
 21
73.8671
 31
0.0
  0
LINE
  8
0
 62
     0
 10
303.131
 20
73.8671
 30
0.0
 11
302.332
 21
73.8671
 31
0.0
  0
LINE
  8
0
 62
     0
 10
302.332
 20
73.8671
 30
0.0
 11
302.332
 21
70.7679
 31
0.0
  0
LINE
  8
0
 62
     0
 10
302.332
 20
70.7679
 30
0.0
 11
303.131
 21
70.7679
 31
0.0
  0
LINE
  8
0
 62
     0
 10
303.131
 20
70.7679
 30
0.0
 11
303.131
 21
69.7675
 31
0.0
  0
LINE
  8
0
 62
     0
 10
303.131
 20
69.7675
 30
0.0
 11
317.132
 21
69.7675
 31
0.0
  0
LINE
  8
0
 62
     0
 10
317.132
 20
69.7675
 30
0.0
 11
317.132
 21
70.7679
 31
0.0
  0
LINE
  8
0
 62
     0
 10
317.132
 20
70.7679
 30
0.0
 11
317.931
 21
70.7679
 31
0.0
  0
LINE
  8
0
 62
     0
 10
317.931
 20
70.7679
 30
0.0
 11
317.931
 21
73.8671
 31
0.0
  0
LINE
  8
0
 62
     0
 10
317.931
 20
73.8671
 30
0.0
 11
317.132
 21
73.8671
 31
0.0
  0
LINE
  8
0
 62
     0
 10
317.132
 20
73.8671
 30
0.0
 11
317.132
 21
79.6671
 31
0.0
  0
LINE
  8
0
 62
     0
 10
317.132
 20
79.6671
 30
0.0
 11
317.931
 21
79.6671
 31
0.0
  0
LINE
  8
0
 62
     0
 10
317.931
 20
79.6671
 30
0.0
 11
317.931
 21
82.7691
 31
0.0
  0
LINE
  8
0
 62
     0
 10
317.931
 20
82.7691
 30
0.0
 11
317.132
 21
82.7691
 31
0.0
  0
LINE
  8
0
 62
     0
 10
317.132
 20
82.7691
 30
0.0
 11
317.132
 21
83.7681
 31
0.0
  0
LINE
  8
0
 62
     0
 10
317.132
 20
83.7681
 30
0.0
 11
303.131
 21
83.7681
 31
0.0
  0
LINE
  8
0
 62
     0
 10
322.181
 20
83.7681
 30
0.0
 11
322.181
 21
82.7691
 31
0.0
  0
LINE
  8
0
 62
     0
 10
322.181
 20
82.7691
 30
0.0
 11
321.382
 21
82.7691
 31
0.0
  0
LINE
  8
0
 62
     0
 10
321.382
 20
82.7691
 30
0.0
 11
321.382
 21
79.6671
 31
0.0
  0
LINE
  8
0
 62
     0
 10
321.382
 20
79.6671
 30
0.0
 11
322.181
 21
79.6671
 31
0.0
  0
LINE
  8
0
 62
     0
 10
322.181
 20
79.6671
 30
0.0
 11
322.181
 21
73.8671
 31
0.0
  0
LINE
  8
0
 62
     0
 10
322.181
 20
73.8671
 30
0.0
 11
321.382
 21
73.8671
 31
0.0
  0
LINE
  8
0
 62
     0
 10
321.382
 20
73.8671
 30
0.0
 11
321.382
 21
70.7679
 31
0.0
  0
LINE
  8
0
 62
     0
 10
321.382
 20
70.7679
 30
0.0
 11
322.181
 21
70.7679
 31
0.0
  0
LINE
  8
0
 62
     0
 10
322.181
 20
70.7679
 30
0.0
 11
322.181
 21
69.7675
 31
0.0
  0
LINE
  8
0
 62
     0
 10
322.181
 20
69.7675
 30
0.0
 11
336.182
 21
69.7675
 31
0.0
  0
LINE
  8
0
 62
     0
 10
336.182
 20
69.7675
 30
0.0
 11
336.182
 21
70.7679
 31
0.0
  0
LINE
  8
0
 62
     0
 10
336.182
 20
70.7679
 30
0.0
 11
336.981
 21
70.7679
 31
0.0
  0
LINE
  8
0
 62
     0
 10
336.981
 20
70.7679
 30
0.0
 11
336.981
 21
73.8671
 31
0.0
  0
LINE
  8
0
 62
     0
 10
336.981
 20
73.8671
 30
0.0
 11
336.182
 21
73.8671
 31
0.0
  0
LINE
  8
0
 62
     0
 10
336.182
 20
73.8671
 30
0.0
 11
336.182
 21
79.6671
 31
0.0
  0
LINE
  8
0
 62
     0
 10
336.182
 20
79.6671
 30
0.0
 11
336.981
 21
79.6671
 31
0.0
  0
LINE
  8
0
 62
     0
 10
336.981
 20
79.6671
 30
0.0
 11
336.981
 21
82.7691
 31
0.0
  0
LINE
  8
0
 62
     0
 10
336.981
 20
82.7691
 30
0.0
 11
336.182
 21
82.7691
 31
0.0
  0
LINE
  8
0
 62
     0
 10
336.182
 20
82.7691
 30
0.0
 11
336.182
 21
83.7681
 31
0.0
  0
LINE
  8
0
 62
     0
 10
336.182
 20
83.7681
 30
0.0
 11
322.181
 21
83.7681
 31
0.0
  0
LINE
  8
0
 62
     0
 10
269.795
 20
102.818
 30
0.0
 11
269.795
 21
101.819
 31
0.0
  0
LINE
  8
0
 62
     0
 10
269.795
 20
101.819
 30
0.0
 11
268.994
 21
101.819
 31
0.0
  0
LINE
  8
0
 62
     0
 10
268.994
 20
101.819
 30
0.0
 11
268.994
 21
98.7171
 31
0.0
  0
LINE
  8
0
 62
     0
 10
268.994
 20
98.7171
 30
0.0
 11
269.795
 21
98.7171
 31
0.0
  0
LINE
  8
0
 62
     0
 10
269.795
 20
98.7171
 30
0.0
 11
269.795
 21
98.1177
 31
0.0
  0
LINE
  8
0
 62
     0
 10
269.795
 20
98.1177
 30
0.0
 11
268.27
 21
98.1177
 31
0.0
  0
LINE
  8
0
 62
     0
 10
268.27
 20
98.1177
 30
0.0
 11
268.27
 21
101.348
 31
0.0
  0
LINE
  8
0
 62
     0
 10
268.27
 20
101.348
 30
0.0
 11
266.544
 21
101.348
 31
0.0
  0
LINE
  8
0
 62
     0
 10
266.544
 20
101.348
 30
0.0
 11
266.544
 21
102.267
 31
0.0
  0
LINE
  8
0
 62
     0
 10
266.544
 20
102.267
 30
0.0
 11
263.245
 21
102.267
 31
0.0
  0
LINE
  8
0
 62
     0
 10
263.245
 20
102.267
 30
0.0
 11
263.245
 21
101.348
 31
0.0
  0
LINE
  8
0
 62
     0
 10
263.245
 20
101.348
 30
0.0
 11
261.52
 21
101.348
 31
0.0
  0
LINE
  8
0
 62
     0
 10
261.52
 20
101.348
 30
0.0
 11
261.52
 21
98.1177
 31
0.0
  0
LINE
  8
0
 62
     0
 10
261.52
 20
98.1177
 30
0.0
 11
260.695
 21
98.1177
 31
0.0
  0
LINE
  8
0
 62
     0
 10
260.695
 20
98.1177
 30
0.0
 11
260.695
 21
95.3188
 31
0.0
  0
LINE
  8
0
 62
     0
 10
260.695
 20
95.3188
 30
0.0
 11
261.52
 21
95.3188
 31
0.0
  0
LINE
  8
0
 62
     0
 10
261.52
 20
95.3188
 30
0.0
 11
261.52
 21
89.0475
 31
0.0
  0
LINE
  8
0
 62
     0
 10
261.52
 20
89.0475
 30
0.0
 11
263.245
 21
89.0475
 31
0.0
  0
LINE
  8
0
 62
     0
 10
263.245
 20
89.0475
 30
0.0
 11
263.245
 21
88.0678
 31
0.0
  0
LINE
  8
0
 62
     0
 10
263.245
 20
88.0678
 30
0.0
 11
266.544
 21
88.0678
 31
0.0
  0
LINE
  8
0
 62
     0
 10
266.544
 20
88.0678
 30
0.0
 11
266.544
 21
89.0475
 31
0.0
  0
LINE
  8
0
 62
     0
 10
266.544
 20
89.0475
 30
0.0
 11
268.27
 21
89.0475
 31
0.0
  0
LINE
  8
0
 62
     0
 10
268.27
 20
89.0475
 30
0.0
 11
268.27
 21
93.5179
 31
0.0
  0
LINE
  8
0
 62
     0
 10
268.27
 20
93.5179
 30
0.0
 11
269.795
 21
93.5179
 31
0.0
  0
LINE
  8
0
 62
     0
 10
269.795
 20
93.5179
 30
0.0
 11
269.795
 21
92.9185
 31
0.0
  0
LINE
  8
0
 62
     0
 10
269.795
 20
92.9185
 30
0.0
 11
268.994
 21
92.9185
 31
0.0
  0
LINE
  8
0
 62
     0
 10
268.994
 20
92.9185
 30
0.0
 11
268.994
 21
89.8179
 31
0.0
  0
LINE
  8
0
 62
     0
 10
268.994
 20
89.8179
 30
0.0
 11
269.795
 21
89.8179
 31
0.0
  0
LINE
  8
0
 62
     0
 10
269.795
 20
89.8179
 30
0.0
 11
269.795
 21
88.8175
 31
0.0
  0
LINE
  8
0
 62
     0
 10
269.795
 20
88.8175
 30
0.0
 11
283.795
 21
88.8175
 31
0.0
  0
LINE
  8
0
 62
     0
 10
283.795
 20
88.8175
 30
0.0
 11
283.795
 21
89.8179
 31
0.0
  0
LINE
  8
0
 62
     0
 10
283.795
 20
89.8179
 30
0.0
 11
284.595
 21
89.8179
 31
0.0
  0
LINE
  8
0
 62
     0
 10
284.595
 20
89.8179
 30
0.0
 11
284.595
 21
92.9185
 31
0.0
  0
LINE
  8
0
 62
     0
 10
284.595
 20
92.9185
 30
0.0
 11
283.795
 21
92.9185
 31
0.0
  0
LINE
  8
0
 62
     0
 10
283.795
 20
92.9185
 30
0.0
 11
283.795
 21
93.5179
 31
0.0
  0
LINE
  8
0
 62
     0
 10
283.795
 20
93.5179
 30
0.0
 11
285.32
 21
93.5179
 31
0.0
  0
LINE
  8
0
 62
     0
 10
285.32
 20
93.5179
 30
0.0
 11
285.32
 21
89.0475
 31
0.0
  0
LINE
  8
0
 62
     0
 10
285.32
 20
89.0475
 30
0.0
 11
287.045
 21
89.0475
 31
0.0
  0
LINE
  8
0
 62
     0
 10
287.045
 20
89.0475
 30
0.0
 11
287.045
 21
88.0678
 31
0.0
  0
LINE
  8
0
 62
     0
 10
287.045
 20
88.0678
 30
0.0
 11
290.344
 21
88.0678
 31
0.0
  0
LINE
  8
0
 62
     0
 10
290.344
 20
88.0678
 30
0.0
 11
290.344
 21
89.0475
 31
0.0
  0
LINE
  8
0
 62
     0
 10
290.344
 20
89.0475
 30
0.0
 11
292.07
 21
89.0475
 31
0.0
  0
LINE
  8
0
 62
     0
 10
292.07
 20
89.0475
 30
0.0
 11
292.07
 21
95.3188
 31
0.0
  0
LINE
  8
0
 62
     0
 10
292.07
 20
95.3188
 30
0.0
 11
292.895
 21
95.3188
 31
0.0
  0
LINE
  8
0
 62
     0
 10
292.895
 20
95.3188
 30
0.0
 11
292.895
 21
98.1177
 31
0.0
  0
LINE
  8
0
 62
     0
 10
292.895
 20
98.1177
 30
0.0
 11
292.07
 21
98.1177
 31
0.0
  0
LINE
  8
0
 62
     0
 10
292.07
 20
98.1177
 30
0.0
 11
292.07
 21
101.348
 31
0.0
  0
LINE
  8
0
 62
     0
 10
292.07
 20
101.348
 30
0.0
 11
290.344
 21
101.348
 31
0.0
  0
LINE
  8
0
 62
     0
 10
290.344
 20
101.348
 30
0.0
 11
290.344
 21
102.267
 31
0.0
  0
LINE
  8
0
 62
     0
 10
290.344
 20
102.267
 30
0.0
 11
287.045
 21
102.267
 31
0.0
  0
LINE
  8
0
 62
     0
 10
287.045
 20
102.267
 30
0.0
 11
287.045
 21
101.348
 31
0.0
  0
LINE
  8
0
 62
     0
 10
287.045
 20
101.348
 30
0.0
 11
285.32
 21
101.348
 31
0.0
  0
LINE
  8
0
 62
     0
 10
285.32
 20
101.348
 30
0.0
 11
285.32
 21
98.1177
 31
0.0
  0
LINE
  8
0
 62
     0
 10
285.32
 20
98.1177
 30
0.0
 11
283.795
 21
98.1177
 31
0.0
  0
LINE
  8
0
 62
     0
 10
283.795
 20
98.1177
 30
0.0
 11
283.795
 21
98.7171
 31
0.0
  0
LINE
  8
0
 62
     0
 10
283.795
 20
98.7171
 30
0.0
 11
284.595
 21
98.7171
 31
0.0
  0
LINE
  8
0
 62
     0
 10
284.595
 20
98.7171
 30
0.0
 11
284.595
 21
101.819
 31
0.0
  0
LINE
  8
0
 62
     0
 10
284.595
 20
101.819
 30
0.0
 11
283.795
 21
101.819
 31
0.0
  0
LINE
  8
0
 62
     0
 10
283.795
 20
101.819
 30
0.0
 11
283.795
 21
102.818
 31
0.0
  0
LINE
  8
0
 62
     0
 10
283.795
 20
102.818
 30
0.0
 11
269.795
 21
102.818
 31
0.0
  0
LINE
  8
0
 62
     0
 10
12.6201
 20
102.818
 30
0.0
 11
12.6201
 21
101.819
 31
0.0
  0
LINE
  8
0
 62
     0
 10
12.6201
 20
101.819
 30
0.0
 11
11.8194
 21
101.819
 31
0.0
  0
LINE
  8
0
 62
     0
 10
11.8194
 20
101.819
 30
0.0
 11
11.8194
 21
98.7171
 31
0.0
  0
LINE
  8
0
 62
     0
 10
11.8194
 20
98.7171
 30
0.0
 11
12.6201
 21
98.7171
 31
0.0
  0
LINE
  8
0
 62
     0
 10
12.6201
 20
98.7171
 30
0.0
 11
12.6201
 21
92.9185
 31
0.0
  0
LINE
  8
0
 62
     0
 10
12.6201
 20
92.9185
 30
0.0
 11
11.8194
 21
92.9185
 31
0.0
  0
LINE
  8
0
 62
     0
 10
11.8194
 20
92.9185
 30
0.0
 11
11.8194
 21
89.8179
 31
0.0
  0
LINE
  8
0
 62
     0
 10
11.8194
 20
89.8179
 30
0.0
 11
12.6201
 21
89.8179
 31
0.0
  0
LINE
  8
0
 62
     0
 10
12.6201
 20
89.8179
 30
0.0
 11
12.6201
 21
88.8175
 31
0.0
  0
LINE
  8
0
 62
     0
 10
12.6201
 20
88.8175
 30
0.0
 11
26.6196
 21
88.8175
 31
0.0
  0
LINE
  8
0
 62
     0
 10
26.6196
 20
88.8175
 30
0.0
 11
26.6196
 21
89.8179
 31
0.0
  0
LINE
  8
0
 62
     0
 10
26.6196
 20
89.8179
 30
0.0
 11
27.4175
 21
89.8179
 31
0.0
  0
LINE
  8
0
 62
     0
 10
27.4175
 20
89.8179
 30
0.0
 11
27.4175
 21
92.9185
 31
0.0
  0
LINE
  8
0
 62
     0
 10
27.4175
 20
92.9185
 30
0.0
 11
26.6196
 21
92.9185
 31
0.0
  0
LINE
  8
0
 62
     0
 10
26.6196
 20
92.9185
 30
0.0
 11
26.6196
 21
98.7171
 31
0.0
  0
LINE
  8
0
 62
     0
 10
26.6196
 20
98.7171
 30
0.0
 11
27.4175
 21
98.7171
 31
0.0
  0
LINE
  8
0
 62
     0
 10
27.4175
 20
98.7171
 30
0.0
 11
27.4175
 21
101.819
 31
0.0
  0
LINE
  8
0
 62
     0
 10
27.4175
 20
101.819
 30
0.0
 11
26.6196
 21
101.819
 31
0.0
  0
LINE
  8
0
 62
     0
 10
26.6196
 20
101.819
 30
0.0
 11
26.6196
 21
102.818
 31
0.0
  0
LINE
  8
0
 62
     0
 10
26.6196
 20
102.818
 30
0.0
 11
12.6201
 21
102.818
 31
0.0
  0
LINE
  8
0
 62
     0
 10
31.6701
 20
102.818
 30
0.0
 11
31.6701
 21
101.819
 31
0.0
  0
LINE
  8
0
 62
     0
 10
31.6701
 20
101.819
 30
0.0
 11
30.8694
 21
101.819
 31
0.0
  0
LINE
  8
0
 62
     0
 10
30.8694
 20
101.819
 30
0.0
 11
30.8694
 21
98.7171
 31
0.0
  0
LINE
  8
0
 62
     0
 10
30.8694
 20
98.7171
 30
0.0
 11
31.6701
 21
98.7171
 31
0.0
  0
LINE
  8
0
 62
     0
 10
31.6701
 20
98.7171
 30
0.0
 11
31.6701
 21
92.9185
 31
0.0
  0
LINE
  8
0
 62
     0
 10
31.6701
 20
92.9185
 30
0.0
 11
30.8694
 21
92.9185
 31
0.0
  0
LINE
  8
0
 62
     0
 10
30.8694
 20
92.9185
 30
0.0
 11
30.8694
 21
89.8179
 31
0.0
  0
LINE
  8
0
 62
     0
 10
30.8694
 20
89.8179
 30
0.0
 11
31.6701
 21
89.8179
 31
0.0
  0
LINE
  8
0
 62
     0
 10
31.6701
 20
89.8179
 30
0.0
 11
31.6701
 21
88.8175
 31
0.0
  0
LINE
  8
0
 62
     0
 10
31.6701
 20
88.8175
 30
0.0
 11
45.6696
 21
88.8175
 31
0.0
  0
LINE
  8
0
 62
     0
 10
45.6696
 20
88.8175
 30
0.0
 11
45.6696
 21
89.8179
 31
0.0
  0
LINE
  8
0
 62
     0
 10
45.6696
 20
89.8179
 30
0.0
 11
46.4704
 21
89.8179
 31
0.0
  0
LINE
  8
0
 62
     0
 10
46.4704
 20
89.8179
 30
0.0
 11
46.4704
 21
92.9185
 31
0.0
  0
LINE
  8
0
 62
     0
 10
46.4704
 20
92.9185
 30
0.0
 11
45.6696
 21
92.9185
 31
0.0
  0
LINE
  8
0
 62
     0
 10
45.6696
 20
92.9185
 30
0.0
 11
45.6696
 21
98.7171
 31
0.0
  0
LINE
  8
0
 62
     0
 10
45.6696
 20
98.7171
 30
0.0
 11
46.4704
 21
98.7171
 31
0.0
  0
LINE
  8
0
 62
     0
 10
46.4704
 20
98.7171
 30
0.0
 11
46.4704
 21
101.819
 31
0.0
  0
LINE
  8
0
 62
     0
 10
46.4704
 20
101.819
 30
0.0
 11
45.6696
 21
101.819
 31
0.0
  0
LINE
  8
0
 62
     0
 10
45.6696
 20
101.819
 30
0.0
 11
45.6696
 21
102.818
 31
0.0
  0
LINE
  8
0
 62
     0
 10
45.6696
 20
102.818
 30
0.0
 11
31.6701
 21
102.818
 31
0.0
  0
LINE
  8
0
 62
     0
 10
50.7199
 20
102.818
 30
0.0
 11
50.7199
 21
101.819
 31
0.0
  0
LINE
  8
0
 62
     0
 10
50.7199
 20
101.819
 30
0.0
 11
49.9195
 21
101.819
 31
0.0
  0
LINE
  8
0
 62
     0
 10
49.9195
 20
101.819
 30
0.0
 11
49.9195
 21
98.7171
 31
0.0
  0
LINE
  8
0
 62
     0
 10
49.9195
 20
98.7171
 30
0.0
 11
50.7199
 21
98.7171
 31
0.0
  0
LINE
  8
0
 62
     0
 10
50.7199
 20
98.7171
 30
0.0
 11
50.7199
 21
92.9185
 31
0.0
  0
LINE
  8
0
 62
     0
 10
50.7199
 20
92.9185
 30
0.0
 11
49.9195
 21
92.9185
 31
0.0
  0
LINE
  8
0
 62
     0
 10
49.9195
 20
92.9185
 30
0.0
 11
49.9195
 21
89.8179
 31
0.0
  0
LINE
  8
0
 62
     0
 10
49.9195
 20
89.8179
 30
0.0
 11
50.7199
 21
89.8179
 31
0.0
  0
LINE
  8
0
 62
     0
 10
50.7199
 20
89.8179
 30
0.0
 11
50.7199
 21
88.8175
 31
0.0
  0
LINE
  8
0
 62
     0
 10
50.7199
 20
88.8175
 30
0.0
 11
64.7196
 21
88.8175
 31
0.0
  0
LINE
  8
0
 62
     0
 10
64.7196
 20
88.8175
 30
0.0
 11
64.7196
 21
89.8179
 31
0.0
  0
LINE
  8
0
 62
     0
 10
64.7196
 20
89.8179
 30
0.0
 11
65.5204
 21
89.8179
 31
0.0
  0
LINE
  8
0
 62
     0
 10
65.5204
 20
89.8179
 30
0.0
 11
65.5204
 21
92.9185
 31
0.0
  0
LINE
  8
0
 62
     0
 10
65.5204
 20
92.9185
 30
0.0
 11
64.7196
 21
92.9185
 31
0.0
  0
LINE
  8
0
 62
     0
 10
64.7196
 20
92.9185
 30
0.0
 11
64.7196
 21
98.7171
 31
0.0
  0
LINE
  8
0
 62
     0
 10
64.7196
 20
98.7171
 30
0.0
 11
65.5204
 21
98.7171
 31
0.0
  0
LINE
  8
0
 62
     0
 10
65.5204
 20
98.7171
 30
0.0
 11
65.5204
 21
101.819
 31
0.0
  0
LINE
  8
0
 62
     0
 10
65.5204
 20
101.819
 30
0.0
 11
64.7196
 21
101.819
 31
0.0
  0
LINE
  8
0
 62
     0
 10
64.7196
 20
101.819
 30
0.0
 11
64.7196
 21
102.818
 31
0.0
  0
LINE
  8
0
 62
     0
 10
64.7196
 20
102.818
 30
0.0
 11
50.7199
 21
102.818
 31
0.0
  0
LINE
  8
0
 62
     0
 10
69.7699
 20
102.818
 30
0.0
 11
69.7699
 21
101.819
 31
0.0
  0
LINE
  8
0
 62
     0
 10
69.7699
 20
101.819
 30
0.0
 11
68.9695
 21
101.819
 31
0.0
  0
LINE
  8
0
 62
     0
 10
68.9695
 20
101.819
 30
0.0
 11
68.9695
 21
98.7171
 31
0.0
  0
LINE
  8
0
 62
     0
 10
68.9695
 20
98.7171
 30
0.0
 11
69.7699
 21
98.7171
 31
0.0
  0
LINE
  8
0
 62
     0
 10
69.7699
 20
98.7171
 30
0.0
 11
69.7699
 21
92.9185
 31
0.0
  0
LINE
  8
0
 62
     0
 10
69.7699
 20
92.9185
 30
0.0
 11
68.9695
 21
92.9185
 31
0.0
  0
LINE
  8
0
 62
     0
 10
68.9695
 20
92.9185
 30
0.0
 11
68.9695
 21
89.8179
 31
0.0
  0
LINE
  8
0
 62
     0
 10
68.9695
 20
89.8179
 30
0.0
 11
69.7699
 21
89.8179
 31
0.0
  0
LINE
  8
0
 62
     0
 10
69.7699
 20
89.8179
 30
0.0
 11
69.7699
 21
88.8175
 31
0.0
  0
LINE
  8
0
 62
     0
 10
69.7699
 20
88.8175
 30
0.0
 11
83.7696
 21
88.8175
 31
0.0
  0
LINE
  8
0
 62
     0
 10
83.7696
 20
88.8175
 30
0.0
 11
83.7696
 21
89.8179
 31
0.0
  0
LINE
  8
0
 62
     0
 10
83.7696
 20
89.8179
 30
0.0
 11
84.5704
 21
89.8179
 31
0.0
  0
LINE
  8
0
 62
     0
 10
84.5704
 20
89.8179
 30
0.0
 11
84.5704
 21
92.9185
 31
0.0
  0
LINE
  8
0
 62
     0
 10
84.5704
 20
92.9185
 30
0.0
 11
83.7696
 21
92.9185
 31
0.0
  0
LINE
  8
0
 62
     0
 10
83.7696
 20
92.9185
 30
0.0
 11
83.7696
 21
98.7171
 31
0.0
  0
LINE
  8
0
 62
     0
 10
83.7696
 20
98.7171
 30
0.0
 11
84.5704
 21
98.7171
 31
0.0
  0
LINE
  8
0
 62
     0
 10
84.5704
 20
98.7171
 30
0.0
 11
84.5704
 21
101.819
 31
0.0
  0
LINE
  8
0
 62
     0
 10
84.5704
 20
101.819
 30
0.0
 11
83.7696
 21
101.819
 31
0.0
  0
LINE
  8
0
 62
     0
 10
83.7696
 20
101.819
 30
0.0
 11
83.7696
 21
102.818
 31
0.0
  0
LINE
  8
0
 62
     0
 10
83.7696
 20
102.818
 30
0.0
 11
69.7699
 21
102.818
 31
0.0
  0
LINE
  8
0
 62
     0
 10
88.8199
 20
102.818
 30
0.0
 11
88.8199
 21
101.819
 31
0.0
  0
LINE
  8
0
 62
     0
 10
88.8199
 20
101.819
 30
0.0
 11
88.0195
 21
101.819
 31
0.0
  0
LINE
  8
0
 62
     0
 10
88.0195
 20
101.819
 30
0.0
 11
88.0195
 21
98.7171
 31
0.0
  0
LINE
  8
0
 62
     0
 10
88.0195
 20
98.7171
 30
0.0
 11
88.8199
 21
98.7171
 31
0.0
  0
LINE
  8
0
 62
     0
 10
88.8199
 20
98.7171
 30
0.0
 11
88.8199
 21
92.9185
 31
0.0
  0
LINE
  8
0
 62
     0
 10
88.8199
 20
92.9185
 30
0.0
 11
88.0195
 21
92.9185
 31
0.0
  0
LINE
  8
0
 62
     0
 10
88.0195
 20
92.9185
 30
0.0
 11
88.0195
 21
89.8179
 31
0.0
  0
LINE
  8
0
 62
     0
 10
88.0195
 20
89.8179
 30
0.0
 11
88.8199
 21
89.8179
 31
0.0
  0
LINE
  8
0
 62
     0
 10
88.8199
 20
89.8179
 30
0.0
 11
88.8199
 21
88.8175
 31
0.0
  0
LINE
  8
0
 62
     0
 10
88.8199
 20
88.8175
 30
0.0
 11
102.82
 21
88.8175
 31
0.0
  0
LINE
  8
0
 62
     0
 10
102.82
 20
88.8175
 30
0.0
 11
102.82
 21
89.8179
 31
0.0
  0
LINE
  8
0
 62
     0
 10
102.82
 20
89.8179
 30
0.0
 11
103.619
 21
89.8179
 31
0.0
  0
LINE
  8
0
 62
     0
 10
103.619
 20
89.8179
 30
0.0
 11
103.619
 21
92.9185
 31
0.0
  0
LINE
  8
0
 62
     0
 10
103.619
 20
92.9185
 30
0.0
 11
102.82
 21
92.9185
 31
0.0
  0
LINE
  8
0
 62
     0
 10
102.82
 20
92.9185
 30
0.0
 11
102.82
 21
98.7171
 31
0.0
  0
LINE
  8
0
 62
     0
 10
102.82
 20
98.7171
 30
0.0
 11
103.619
 21
98.7171
 31
0.0
  0
LINE
  8
0
 62
     0
 10
103.619
 20
98.7171
 30
0.0
 11
103.619
 21
101.819
 31
0.0
  0
LINE
  8
0
 62
     0
 10
103.619
 20
101.819
 30
0.0
 11
102.82
 21
101.819
 31
0.0
  0
LINE
  8
0
 62
     0
 10
102.82
 20
101.819
 30
0.0
 11
102.82
 21
102.818
 31
0.0
  0
LINE
  8
0
 62
     0
 10
102.82
 20
102.818
 30
0.0
 11
88.8199
 21
102.818
 31
0.0
  0
LINE
  8
0
 62
     0
 10
107.869
 20
102.818
 30
0.0
 11
107.869
 21
101.819
 31
0.0
  0
LINE
  8
0
 62
     0
 10
107.869
 20
101.819
 30
0.0
 11
107.069
 21
101.819
 31
0.0
  0
LINE
  8
0
 62
     0
 10
107.069
 20
101.819
 30
0.0
 11
107.069
 21
98.7171
 31
0.0
  0
LINE
  8
0
 62
     0
 10
107.069
 20
98.7171
 30
0.0
 11
107.869
 21
98.7171
 31
0.0
  0
LINE
  8
0
 62
     0
 10
107.869
 20
98.7171
 30
0.0
 11
107.869
 21
92.9185
 31
0.0
  0
LINE
  8
0
 62
     0
 10
107.869
 20
92.9185
 30
0.0
 11
107.069
 21
92.9185
 31
0.0
  0
LINE
  8
0
 62
     0
 10
107.069
 20
92.9185
 30
0.0
 11
107.069
 21
89.8179
 31
0.0
  0
LINE
  8
0
 62
     0
 10
107.069
 20
89.8179
 30
0.0
 11
107.869
 21
89.8179
 31
0.0
  0
LINE
  8
0
 62
     0
 10
107.869
 20
89.8179
 30
0.0
 11
107.869
 21
88.8175
 31
0.0
  0
LINE
  8
0
 62
     0
 10
107.869
 20
88.8175
 30
0.0
 11
121.868
 21
88.8175
 31
0.0
  0
LINE
  8
0
 62
     0
 10
121.868
 20
88.8175
 30
0.0
 11
121.868
 21
89.8179
 31
0.0
  0
LINE
  8
0
 62
     0
 10
121.868
 20
89.8179
 30
0.0
 11
122.669
 21
89.8179
 31
0.0
  0
LINE
  8
0
 62
     0
 10
122.669
 20
89.8179
 30
0.0
 11
122.669
 21
92.9185
 31
0.0
  0
LINE
  8
0
 62
     0
 10
122.669
 20
92.9185
 30
0.0
 11
121.868
 21
92.9185
 31
0.0
  0
LINE
  8
0
 62
     0
 10
121.868
 20
92.9185
 30
0.0
 11
121.868
 21
98.7171
 31
0.0
  0
LINE
  8
0
 62
     0
 10
121.868
 20
98.7171
 30
0.0
 11
122.669
 21
98.7171
 31
0.0
  0
LINE
  8
0
 62
     0
 10
122.669
 20
98.7171
 30
0.0
 11
122.669
 21
101.819
 31
0.0
  0
LINE
  8
0
 62
     0
 10
122.669
 20
101.819
 30
0.0
 11
121.868
 21
101.819
 31
0.0
  0
LINE
  8
0
 62
     0
 10
121.868
 20
101.819
 30
0.0
 11
121.868
 21
102.818
 31
0.0
  0
LINE
  8
0
 62
     0
 10
121.868
 20
102.818
 30
0.0
 11
107.869
 21
102.818
 31
0.0
  0
LINE
  8
0
 62
     0
 10
126.92
 20
102.818
 30
0.0
 11
126.92
 21
101.819
 31
0.0
  0
LINE
  8
0
 62
     0
 10
126.92
 20
101.819
 30
0.0
 11
126.119
 21
101.819
 31
0.0
  0
LINE
  8
0
 62
     0
 10
126.119
 20
101.819
 30
0.0
 11
126.119
 21
98.7171
 31
0.0
  0
LINE
  8
0
 62
     0
 10
126.119
 20
98.7171
 30
0.0
 11
126.92
 21
98.7171
 31
0.0
  0
LINE
  8
0
 62
     0
 10
126.92
 20
98.7171
 30
0.0
 11
126.92
 21
92.9185
 31
0.0
  0
LINE
  8
0
 62
     0
 10
126.92
 20
92.9185
 30
0.0
 11
126.119
 21
92.9185
 31
0.0
  0
LINE
  8
0
 62
     0
 10
126.119
 20
92.9185
 30
0.0
 11
126.119
 21
89.8179
 31
0.0
  0
LINE
  8
0
 62
     0
 10
126.119
 20
89.8179
 30
0.0
 11
126.92
 21
89.8179
 31
0.0
  0
LINE
  8
0
 62
     0
 10
126.92
 20
89.8179
 30
0.0
 11
126.92
 21
88.8175
 31
0.0
  0
LINE
  8
0
 62
     0
 10
126.92
 20
88.8175
 30
0.0
 11
140.92
 21
88.8175
 31
0.0
  0
LINE
  8
0
 62
     0
 10
140.92
 20
88.8175
 30
0.0
 11
140.92
 21
89.8179
 31
0.0
  0
LINE
  8
0
 62
     0
 10
140.92
 20
89.8179
 30
0.0
 11
141.72
 21
89.8179
 31
0.0
  0
LINE
  8
0
 62
     0
 10
141.72
 20
89.8179
 30
0.0
 11
141.72
 21
92.9185
 31
0.0
  0
LINE
  8
0
 62
     0
 10
141.72
 20
92.9185
 30
0.0
 11
140.92
 21
92.9185
 31
0.0
  0
LINE
  8
0
 62
     0
 10
140.92
 20
92.9185
 30
0.0
 11
140.92
 21
98.7171
 31
0.0
  0
LINE
  8
0
 62
     0
 10
140.92
 20
98.7171
 30
0.0
 11
141.72
 21
98.7171
 31
0.0
  0
LINE
  8
0
 62
     0
 10
141.72
 20
98.7171
 30
0.0
 11
141.72
 21
101.819
 31
0.0
  0
LINE
  8
0
 62
     0
 10
141.72
 20
101.819
 30
0.0
 11
140.92
 21
101.819
 31
0.0
  0
LINE
  8
0
 62
     0
 10
140.92
 20
101.819
 30
0.0
 11
140.92
 21
102.818
 31
0.0
  0
LINE
  8
0
 62
     0
 10
140.92
 20
102.818
 30
0.0
 11
126.92
 21
102.818
 31
0.0
  0
LINE
  8
0
 62
     0
 10
145.97
 20
102.818
 30
0.0
 11
145.97
 21
101.819
 31
0.0
  0
LINE
  8
0
 62
     0
 10
145.97
 20
101.819
 30
0.0
 11
145.169
 21
101.819
 31
0.0
  0
LINE
  8
0
 62
     0
 10
145.169
 20
101.819
 30
0.0
 11
145.169
 21
98.7171
 31
0.0
  0
LINE
  8
0
 62
     0
 10
145.169
 20
98.7171
 30
0.0
 11
145.97
 21
98.7171
 31
0.0
  0
LINE
  8
0
 62
     0
 10
145.97
 20
98.7171
 30
0.0
 11
145.97
 21
92.9185
 31
0.0
  0
LINE
  8
0
 62
     0
 10
145.97
 20
92.9185
 30
0.0
 11
145.169
 21
92.9185
 31
0.0
  0
LINE
  8
0
 62
     0
 10
145.169
 20
92.9185
 30
0.0
 11
145.169
 21
89.8179
 31
0.0
  0
LINE
  8
0
 62
     0
 10
145.169
 20
89.8179
 30
0.0
 11
145.97
 21
89.8179
 31
0.0
  0
LINE
  8
0
 62
     0
 10
145.97
 20
89.8179
 30
0.0
 11
145.97
 21
88.8175
 31
0.0
  0
LINE
  8
0
 62
     0
 10
145.97
 20
88.8175
 30
0.0
 11
159.97
 21
88.8175
 31
0.0
  0
LINE
  8
0
 62
     0
 10
159.97
 20
88.8175
 30
0.0
 11
159.97
 21
89.8179
 31
0.0
  0
LINE
  8
0
 62
     0
 10
159.97
 20
89.8179
 30
0.0
 11
160.77
 21
89.8179
 31
0.0
  0
LINE
  8
0
 62
     0
 10
160.77
 20
89.8179
 30
0.0
 11
160.77
 21
92.9185
 31
0.0
  0
LINE
  8
0
 62
     0
 10
160.77
 20
92.9185
 30
0.0
 11
159.97
 21
92.9185
 31
0.0
  0
LINE
  8
0
 62
     0
 10
159.97
 20
92.9185
 30
0.0
 11
159.97
 21
98.7171
 31
0.0
  0
LINE
  8
0
 62
     0
 10
159.97
 20
98.7171
 30
0.0
 11
160.77
 21
98.7171
 31
0.0
  0
LINE
  8
0
 62
     0
 10
160.77
 20
98.7171
 30
0.0
 11
160.77
 21
101.819
 31
0.0
  0
LINE
  8
0
 62
     0
 10
160.77
 20
101.819
 30
0.0
 11
159.97
 21
101.819
 31
0.0
  0
LINE
  8
0
 62
     0
 10
159.97
 20
101.819
 30
0.0
 11
159.97
 21
102.818
 31
0.0
  0
LINE
  8
0
 62
     0
 10
159.97
 20
102.818
 30
0.0
 11
145.97
 21
102.818
 31
0.0
  0
LINE
  8
0
 62
     0
 10
165.02
 20
102.818
 30
0.0
 11
165.02
 21
101.819
 31
0.0
  0
LINE
  8
0
 62
     0
 10
165.02
 20
101.819
 30
0.0
 11
164.219
 21
101.819
 31
0.0
  0
LINE
  8
0
 62
     0
 10
164.219
 20
101.819
 30
0.0
 11
164.219
 21
98.7171
 31
0.0
  0
LINE
  8
0
 62
     0
 10
164.219
 20
98.7171
 30
0.0
 11
165.02
 21
98.7171
 31
0.0
  0
LINE
  8
0
 62
     0
 10
165.02
 20
98.7171
 30
0.0
 11
165.02
 21
92.9185
 31
0.0
  0
LINE
  8
0
 62
     0
 10
165.02
 20
92.9185
 30
0.0
 11
164.219
 21
92.9185
 31
0.0
  0
LINE
  8
0
 62
     0
 10
164.219
 20
92.9185
 30
0.0
 11
164.219
 21
89.8179
 31
0.0
  0
LINE
  8
0
 62
     0
 10
164.219
 20
89.8179
 30
0.0
 11
165.02
 21
89.8179
 31
0.0
  0
LINE
  8
0
 62
     0
 10
165.02
 20
89.8179
 30
0.0
 11
165.02
 21
88.8175
 31
0.0
  0
LINE
  8
0
 62
     0
 10
165.02
 20
88.8175
 30
0.0
 11
179.02
 21
88.8175
 31
0.0
  0
LINE
  8
0
 62
     0
 10
179.02
 20
88.8175
 30
0.0
 11
179.02
 21
89.8179
 31
0.0
  0
LINE
  8
0
 62
     0
 10
179.02
 20
89.8179
 30
0.0
 11
179.82
 21
89.8179
 31
0.0
  0
LINE
  8
0
 62
     0
 10
179.82
 20
89.8179
 30
0.0
 11
179.82
 21
92.9185
 31
0.0
  0
LINE
  8
0
 62
     0
 10
179.82
 20
92.9185
 30
0.0
 11
179.02
 21
92.9185
 31
0.0
  0
LINE
  8
0
 62
     0
 10
179.02
 20
92.9185
 30
0.0
 11
179.02
 21
98.7171
 31
0.0
  0
LINE
  8
0
 62
     0
 10
179.02
 20
98.7171
 30
0.0
 11
179.82
 21
98.7171
 31
0.0
  0
LINE
  8
0
 62
     0
 10
179.82
 20
98.7171
 30
0.0
 11
179.82
 21
101.819
 31
0.0
  0
LINE
  8
0
 62
     0
 10
179.82
 20
101.819
 30
0.0
 11
179.02
 21
101.819
 31
0.0
  0
LINE
  8
0
 62
     0
 10
179.02
 20
101.819
 30
0.0
 11
179.02
 21
102.818
 31
0.0
  0
LINE
  8
0
 62
     0
 10
179.02
 20
102.818
 30
0.0
 11
165.02
 21
102.818
 31
0.0
  0
LINE
  8
0
 62
     0
 10
184.07
 20
102.818
 30
0.0
 11
184.07
 21
101.819
 31
0.0
  0
LINE
  8
0
 62
     0
 10
184.07
 20
101.819
 30
0.0
 11
183.269
 21
101.819
 31
0.0
  0
LINE
  8
0
 62
     0
 10
183.269
 20
101.819
 30
0.0
 11
183.269
 21
98.7171
 31
0.0
  0
LINE
  8
0
 62
     0
 10
183.269
 20
98.7171
 30
0.0
 11
184.07
 21
98.7171
 31
0.0
  0
LINE
  8
0
 62
     0
 10
184.07
 20
98.7171
 30
0.0
 11
184.07
 21
92.9185
 31
0.0
  0
LINE
  8
0
 62
     0
 10
184.07
 20
92.9185
 30
0.0
 11
183.269
 21
92.9185
 31
0.0
  0
LINE
  8
0
 62
     0
 10
183.269
 20
92.9185
 30
0.0
 11
183.269
 21
89.8179
 31
0.0
  0
LINE
  8
0
 62
     0
 10
183.269
 20
89.8179
 30
0.0
 11
184.07
 21
89.8179
 31
0.0
  0
LINE
  8
0
 62
     0
 10
184.07
 20
89.8179
 30
0.0
 11
184.07
 21
88.8175
 31
0.0
  0
LINE
  8
0
 62
     0
 10
184.07
 20
88.8175
 30
0.0
 11
198.07
 21
88.8175
 31
0.0
  0
LINE
  8
0
 62
     0
 10
198.07
 20
88.8175
 30
0.0
 11
198.07
 21
89.8179
 31
0.0
  0
LINE
  8
0
 62
     0
 10
198.07
 20
89.8179
 30
0.0
 11
198.87
 21
89.8179
 31
0.0
  0
LINE
  8
0
 62
     0
 10
198.87
 20
89.8179
 30
0.0
 11
198.87
 21
92.9185
 31
0.0
  0
LINE
  8
0
 62
     0
 10
198.87
 20
92.9185
 30
0.0
 11
198.07
 21
92.9185
 31
0.0
  0
LINE
  8
0
 62
     0
 10
198.07
 20
92.9185
 30
0.0
 11
198.07
 21
98.7171
 31
0.0
  0
LINE
  8
0
 62
     0
 10
198.07
 20
98.7171
 30
0.0
 11
198.87
 21
98.7171
 31
0.0
  0
LINE
  8
0
 62
     0
 10
198.87
 20
98.7171
 30
0.0
 11
198.87
 21
101.819
 31
0.0
  0
LINE
  8
0
 62
     0
 10
198.87
 20
101.819
 30
0.0
 11
198.07
 21
101.819
 31
0.0
  0
LINE
  8
0
 62
     0
 10
198.07
 20
101.819
 30
0.0
 11
198.07
 21
102.818
 31
0.0
  0
LINE
  8
0
 62
     0
 10
198.07
 20
102.818
 30
0.0
 11
184.07
 21
102.818
 31
0.0
  0
LINE
  8
0
 62
     0
 10
203.12
 20
102.818
 30
0.0
 11
203.12
 21
101.819
 31
0.0
  0
LINE
  8
0
 62
     0
 10
203.12
 20
101.819
 30
0.0
 11
202.319
 21
101.819
 31
0.0
  0
LINE
  8
0
 62
     0
 10
202.319
 20
101.819
 30
0.0
 11
202.319
 21
98.7171
 31
0.0
  0
LINE
  8
0
 62
     0
 10
202.319
 20
98.7171
 30
0.0
 11
203.12
 21
98.7171
 31
0.0
  0
LINE
  8
0
 62
     0
 10
203.12
 20
98.7171
 30
0.0
 11
203.12
 21
92.9185
 31
0.0
  0
LINE
  8
0
 62
     0
 10
203.12
 20
92.9185
 30
0.0
 11
202.319
 21
92.9185
 31
0.0
  0
LINE
  8
0
 62
     0
 10
202.319
 20
92.9185
 30
0.0
 11
202.319
 21
89.8179
 31
0.0
  0
LINE
  8
0
 62
     0
 10
202.319
 20
89.8179
 30
0.0
 11
203.12
 21
89.8179
 31
0.0
  0
LINE
  8
0
 62
     0
 10
203.12
 20
89.8179
 30
0.0
 11
203.12
 21
88.8175
 31
0.0
  0
LINE
  8
0
 62
     0
 10
203.12
 20
88.8175
 30
0.0
 11
217.12
 21
88.8175
 31
0.0
  0
LINE
  8
0
 62
     0
 10
217.12
 20
88.8175
 30
0.0
 11
217.12
 21
89.8179
 31
0.0
  0
LINE
  8
0
 62
     0
 10
217.12
 20
89.8179
 30
0.0
 11
217.92
 21
89.8179
 31
0.0
  0
LINE
  8
0
 62
     0
 10
217.92
 20
89.8179
 30
0.0
 11
217.92
 21
92.9185
 31
0.0
  0
LINE
  8
0
 62
     0
 10
217.92
 20
92.9185
 30
0.0
 11
217.12
 21
92.9185
 31
0.0
  0
LINE
  8
0
 62
     0
 10
217.12
 20
92.9185
 30
0.0
 11
217.12
 21
98.7171
 31
0.0
  0
LINE
  8
0
 62
     0
 10
217.12
 20
98.7171
 30
0.0
 11
217.92
 21
98.7171
 31
0.0
  0
LINE
  8
0
 62
     0
 10
217.92
 20
98.7171
 30
0.0
 11
217.92
 21
101.819
 31
0.0
  0
LINE
  8
0
 62
     0
 10
217.92
 20
101.819
 30
0.0
 11
217.12
 21
101.819
 31
0.0
  0
LINE
  8
0
 62
     0
 10
217.12
 20
101.819
 30
0.0
 11
217.12
 21
102.818
 31
0.0
  0
LINE
  8
0
 62
     0
 10
217.12
 20
102.818
 30
0.0
 11
203.12
 21
102.818
 31
0.0
  0
LINE
  8
0
 62
     0
 10
222.17
 20
102.818
 30
0.0
 11
222.17
 21
101.819
 31
0.0
  0
LINE
  8
0
 62
     0
 10
222.17
 20
101.819
 30
0.0
 11
221.369
 21
101.819
 31
0.0
  0
LINE
  8
0
 62
     0
 10
221.369
 20
101.819
 30
0.0
 11
221.369
 21
98.7171
 31
0.0
  0
LINE
  8
0
 62
     0
 10
221.369
 20
98.7171
 30
0.0
 11
222.17
 21
98.7171
 31
0.0
  0
LINE
  8
0
 62
     0
 10
222.17
 20
98.7171
 30
0.0
 11
222.17
 21
92.9185
 31
0.0
  0
LINE
  8
0
 62
     0
 10
222.17
 20
92.9185
 30
0.0
 11
221.369
 21
92.9185
 31
0.0
  0
LINE
  8
0
 62
     0
 10
221.369
 20
92.9185
 30
0.0
 11
221.369
 21
89.8179
 31
0.0
  0
LINE
  8
0
 62
     0
 10
221.369
 20
89.8179
 30
0.0
 11
222.17
 21
89.8179
 31
0.0
  0
LINE
  8
0
 62
     0
 10
222.17
 20
89.8179
 30
0.0
 11
222.17
 21
88.8175
 31
0.0
  0
LINE
  8
0
 62
     0
 10
222.17
 20
88.8175
 30
0.0
 11
236.17
 21
88.8175
 31
0.0
  0
LINE
  8
0
 62
     0
 10
236.17
 20
88.8175
 30
0.0
 11
236.17
 21
89.8179
 31
0.0
  0
LINE
  8
0
 62
     0
 10
236.17
 20
89.8179
 30
0.0
 11
236.97
 21
89.8179
 31
0.0
  0
LINE
  8
0
 62
     0
 10
236.97
 20
89.8179
 30
0.0
 11
236.97
 21
92.9185
 31
0.0
  0
LINE
  8
0
 62
     0
 10
236.97
 20
92.9185
 30
0.0
 11
236.17
 21
92.9185
 31
0.0
  0
LINE
  8
0
 62
     0
 10
236.17
 20
92.9185
 30
0.0
 11
236.17
 21
98.7171
 31
0.0
  0
LINE
  8
0
 62
     0
 10
236.17
 20
98.7171
 30
0.0
 11
236.97
 21
98.7171
 31
0.0
  0
LINE
  8
0
 62
     0
 10
236.97
 20
98.7171
 30
0.0
 11
236.97
 21
101.819
 31
0.0
  0
LINE
  8
0
 62
     0
 10
236.97
 20
101.819
 30
0.0
 11
236.17
 21
101.819
 31
0.0
  0
LINE
  8
0
 62
     0
 10
236.17
 20
101.819
 30
0.0
 11
236.17
 21
102.818
 31
0.0
  0
LINE
  8
0
 62
     0
 10
236.17
 20
102.818
 30
0.0
 11
222.17
 21
102.818
 31
0.0
  0
LINE
  8
0
 62
     0
 10
241.22
 20
102.818
 30
0.0
 11
241.22
 21
101.819
 31
0.0
  0
LINE
  8
0
 62
     0
 10
241.22
 20
101.819
 30
0.0
 11
240.419
 21
101.819
 31
0.0
  0
LINE
  8
0
 62
     0
 10
240.419
 20
101.819
 30
0.0
 11
240.419
 21
98.7171
 31
0.0
  0
LINE
  8
0
 62
     0
 10
240.419
 20
98.7171
 30
0.0
 11
241.22
 21
98.7171
 31
0.0
  0
LINE
  8
0
 62
     0
 10
241.22
 20
98.7171
 30
0.0
 11
241.22
 21
92.9185
 31
0.0
  0
LINE
  8
0
 62
     0
 10
241.22
 20
92.9185
 30
0.0
 11
240.419
 21
92.9185
 31
0.0
  0
LINE
  8
0
 62
     0
 10
240.419
 20
92.9185
 30
0.0
 11
240.419
 21
89.8179
 31
0.0
  0
LINE
  8
0
 62
     0
 10
240.419
 20
89.8179
 30
0.0
 11
241.22
 21
89.8179
 31
0.0
  0
LINE
  8
0
 62
     0
 10
241.22
 20
89.8179
 30
0.0
 11
241.22
 21
88.8175
 31
0.0
  0
LINE
  8
0
 62
     0
 10
241.22
 20
88.8175
 30
0.0
 11
255.22
 21
88.8175
 31
0.0
  0
LINE
  8
0
 62
     0
 10
255.22
 20
88.8175
 30
0.0
 11
255.22
 21
89.8179
 31
0.0
  0
LINE
  8
0
 62
     0
 10
255.22
 20
89.8179
 30
0.0
 11
256.02
 21
89.8179
 31
0.0
  0
LINE
  8
0
 62
     0
 10
256.02
 20
89.8179
 30
0.0
 11
256.02
 21
92.9185
 31
0.0
  0
LINE
  8
0
 62
     0
 10
256.02
 20
92.9185
 30
0.0
 11
255.22
 21
92.9185
 31
0.0
  0
LINE
  8
0
 62
     0
 10
255.22
 20
92.9185
 30
0.0
 11
255.22
 21
98.7171
 31
0.0
  0
LINE
  8
0
 62
     0
 10
255.22
 20
98.7171
 30
0.0
 11
256.02
 21
98.7171
 31
0.0
  0
LINE
  8
0
 62
     0
 10
256.02
 20
98.7171
 30
0.0
 11
256.02
 21
101.819
 31
0.0
  0
LINE
  8
0
 62
     0
 10
256.02
 20
101.819
 30
0.0
 11
255.22
 21
101.819
 31
0.0
  0
LINE
  8
0
 62
     0
 10
255.22
 20
101.819
 30
0.0
 11
255.22
 21
102.818
 31
0.0
  0
LINE
  8
0
 62
     0
 10
255.22
 20
102.818
 30
0.0
 11
241.22
 21
102.818
 31
0.0
  0
LINE
  8
0
 62
     0
 10
303.131
 20
102.818
 30
0.0
 11
303.131
 21
101.819
 31
0.0
  0
LINE
  8
0
 62
     0
 10
303.131
 20
101.819
 30
0.0
 11
302.332
 21
101.819
 31
0.0
  0
LINE
  8
0
 62
     0
 10
302.332
 20
101.819
 30
0.0
 11
302.332
 21
98.7171
 31
0.0
  0
LINE
  8
0
 62
     0
 10
302.332
 20
98.7171
 30
0.0
 11
303.131
 21
98.7171
 31
0.0
  0
LINE
  8
0
 62
     0
 10
303.131
 20
98.7171
 30
0.0
 11
303.131
 21
92.9185
 31
0.0
  0
LINE
  8
0
 62
     0
 10
303.131
 20
92.9185
 30
0.0
 11
302.332
 21
92.9185
 31
0.0
  0
LINE
  8
0
 62
     0
 10
302.332
 20
92.9185
 30
0.0
 11
302.332
 21
89.8179
 31
0.0
  0
LINE
  8
0
 62
     0
 10
302.332
 20
89.8179
 30
0.0
 11
303.131
 21
89.8179
 31
0.0
  0
LINE
  8
0
 62
     0
 10
303.131
 20
89.8179
 30
0.0
 11
303.131
 21
88.8175
 31
0.0
  0
LINE
  8
0
 62
     0
 10
303.131
 20
88.8175
 30
0.0
 11
317.132
 21
88.8175
 31
0.0
  0
LINE
  8
0
 62
     0
 10
317.132
 20
88.8175
 30
0.0
 11
317.132
 21
89.8179
 31
0.0
  0
LINE
  8
0
 62
     0
 10
317.132
 20
89.8179
 30
0.0
 11
317.931
 21
89.8179
 31
0.0
  0
LINE
  8
0
 62
     0
 10
317.931
 20
89.8179
 30
0.0
 11
317.931
 21
92.9185
 31
0.0
  0
LINE
  8
0
 62
     0
 10
317.931
 20
92.9185
 30
0.0
 11
317.132
 21
92.9185
 31
0.0
  0
LINE
  8
0
 62
     0
 10
317.132
 20
92.9185
 30
0.0
 11
317.132
 21
98.7171
 31
0.0
  0
LINE
  8
0
 62
     0
 10
317.132
 20
98.7171
 30
0.0
 11
317.931
 21
98.7171
 31
0.0
  0
LINE
  8
0
 62
     0
 10
317.931
 20
98.7171
 30
0.0
 11
317.931
 21
101.819
 31
0.0
  0
LINE
  8
0
 62
     0
 10
317.931
 20
101.819
 30
0.0
 11
317.132
 21
101.819
 31
0.0
  0
LINE
  8
0
 62
     0
 10
317.132
 20
101.819
 30
0.0
 11
317.132
 21
102.818
 31
0.0
  0
LINE
  8
0
 62
     0
 10
317.132
 20
102.818
 30
0.0
 11
303.131
 21
102.818
 31
0.0
  0
LINE
  8
0
 62
     0
 10
322.181
 20
102.818
 30
0.0
 11
322.181
 21
101.819
 31
0.0
  0
LINE
  8
0
 62
     0
 10
322.181
 20
101.819
 30
0.0
 11
321.382
 21
101.819
 31
0.0
  0
LINE
  8
0
 62
     0
 10
321.382
 20
101.819
 30
0.0
 11
321.382
 21
98.7171
 31
0.0
  0
LINE
  8
0
 62
     0
 10
321.382
 20
98.7171
 30
0.0
 11
322.181
 21
98.7171
 31
0.0
  0
LINE
  8
0
 62
     0
 10
322.181
 20
98.7171
 30
0.0
 11
322.181
 21
92.9185
 31
0.0
  0
LINE
  8
0
 62
     0
 10
322.181
 20
92.9185
 30
0.0
 11
321.382
 21
92.9185
 31
0.0
  0
LINE
  8
0
 62
     0
 10
321.382
 20
92.9185
 30
0.0
 11
321.382
 21
89.8179
 31
0.0
  0
LINE
  8
0
 62
     0
 10
321.382
 20
89.8179
 30
0.0
 11
322.181
 21
89.8179
 31
0.0
  0
LINE
  8
0
 62
     0
 10
322.181
 20
89.8179
 30
0.0
 11
322.181
 21
88.8175
 31
0.0
  0
LINE
  8
0
 62
     0
 10
322.181
 20
88.8175
 30
0.0
 11
336.182
 21
88.8175
 31
0.0
  0
LINE
  8
0
 62
     0
 10
336.182
 20
88.8175
 30
0.0
 11
336.182
 21
89.8179
 31
0.0
  0
LINE
  8
0
 62
     0
 10
336.182
 20
89.8179
 30
0.0
 11
336.981
 21
89.8179
 31
0.0
  0
LINE
  8
0
 62
     0
 10
336.981
 20
89.8179
 30
0.0
 11
336.981
 21
92.9185
 31
0.0
  0
LINE
  8
0
 62
     0
 10
336.981
 20
92.9185
 30
0.0
 11
336.182
 21
92.9185
 31
0.0
  0
LINE
  8
0
 62
     0
 10
336.182
 20
92.9185
 30
0.0
 11
336.182
 21
98.7171
 31
0.0
  0
LINE
  8
0
 62
     0
 10
336.182
 20
98.7171
 30
0.0
 11
336.981
 21
98.7171
 31
0.0
  0
LINE
  8
0
 62
     0
 10
336.981
 20
98.7171
 30
0.0
 11
336.981
 21
101.819
 31
0.0
  0
LINE
  8
0
 62
     0
 10
336.981
 20
101.819
 30
0.0
 11
336.182
 21
101.819
 31
0.0
  0
LINE
  8
0
 62
     0
 10
336.182
 20
101.819
 30
0.0
 11
336.182
 21
102.818
 31
0.0
  0
LINE
  8
0
 62
     0
 10
336.182
 20
102.818
 30
0.0
 11
322.181
 21
102.818
 31
0.0
  0
LINE
  8
0
 62
     0
 10
89.2073
 20
112.007
 30
0.0
 11
88.718
 21
111.758
 31
0.0
  0
LINE
  8
0
 62
     0
 10
88.718
 20
111.758
 30
0.0
 11
88.3324
 21
111.373
 31
0.0
  0
LINE
  8
0
 62
     0
 10
88.3324
 20
111.373
 30
0.0
 11
88.0844
 21
110.883
 31
0.0
  0
LINE
  8
0
 62
     0
 10
88.0844
 20
110.883
 30
0.0
 11
87.9972
 21
110.344
 31
0.0
  0
LINE
  8
0
 62
     0
 10
87.9972
 20
110.344
 30
0.0
 11
88.0844
 21
109.802
 31
0.0
  0
LINE
  8
0
 62
     0
 10
88.0844
 20
109.802
 30
0.0
 11
88.3324
 21
109.316
 31
0.0
  0
LINE
  8
0
 62
     0
 10
88.3324
 20
109.316
 30
0.0
 11
88.718
 21
108.927
 31
0.0
  0
LINE
  8
0
 62
     0
 10
88.718
 20
108.927
 30
0.0
 11
89.2073
 21
108.678
 31
0.0
  0
LINE
  8
0
 62
     0
 10
89.2073
 20
108.678
 30
0.0
 11
89.7474
 21
108.593
 31
0.0
  0
LINE
  8
0
 62
     0
 10
89.7474
 20
108.593
 30
0.0
 11
90.2892
 21
108.678
 31
0.0
  0
LINE
  8
0
 62
     0
 10
90.2892
 20
108.678
 30
0.0
 11
90.7754
 21
108.927
 31
0.0
  0
LINE
  8
0
 62
     0
 10
90.7754
 20
108.927
 30
0.0
 11
91.1641
 21
109.316
 31
0.0
  0
LINE
  8
0
 62
     0
 10
91.1641
 20
109.316
 30
0.0
 11
91.4121
 21
109.802
 31
0.0
  0
LINE
  8
0
 62
     0
 10
91.4121
 20
109.802
 30
0.0
 11
91.4975
 21
110.344
 31
0.0
  0
LINE
  8
0
 62
     0
 10
91.4975
 20
110.344
 30
0.0
 11
91.4121
 21
110.883
 31
0.0
  0
LINE
  8
0
 62
     0
 10
91.4121
 20
110.883
 30
0.0
 11
91.1641
 21
111.373
 31
0.0
  0
LINE
  8
0
 62
     0
 10
91.1641
 20
111.373
 30
0.0
 11
90.7754
 21
111.758
 31
0.0
  0
LINE
  8
0
 62
     0
 10
90.7754
 20
111.758
 30
0.0
 11
90.2892
 21
112.007
 31
0.0
  0
LINE
  8
0
 62
     0
 10
90.2892
 20
112.007
 30
0.0
 11
89.7474
 21
112.094
 31
0.0
  0
LINE
  8
0
 62
     0
 10
89.7474
 20
112.094
 30
0.0
 11
89.2073
 21
112.007
 31
0.0
  0
LINE
  8
0
 62
     0
 10
173.86
 20
112.007
 30
0.0
 11
173.372
 21
111.758
 31
0.0
  0
LINE
  8
0
 62
     0
 10
173.372
 20
111.758
 30
0.0
 11
172.985
 21
111.373
 31
0.0
  0
LINE
  8
0
 62
     0
 10
172.985
 20
111.373
 30
0.0
 11
172.737
 21
110.883
 31
0.0
  0
LINE
  8
0
 62
     0
 10
172.737
 20
110.883
 30
0.0
 11
172.65
 21
110.344
 31
0.0
  0
LINE
  8
0
 62
     0
 10
172.65
 20
110.344
 30
0.0
 11
172.737
 21
109.802
 31
0.0
  0
LINE
  8
0
 62
     0
 10
172.737
 20
109.802
 30
0.0
 11
172.985
 21
109.316
 31
0.0
  0
LINE
  8
0
 62
     0
 10
172.985
 20
109.316
 30
0.0
 11
173.372
 21
108.927
 31
0.0
  0
LINE
  8
0
 62
     0
 10
173.372
 20
108.927
 30
0.0
 11
173.86
 21
108.678
 31
0.0
  0
LINE
  8
0
 62
     0
 10
173.86
 20
108.678
 30
0.0
 11
174.4
 21
108.593
 31
0.0
  0
LINE
  8
0
 62
     0
 10
174.4
 20
108.593
 30
0.0
 11
174.942
 21
108.678
 31
0.0
  0
LINE
  8
0
 62
     0
 10
174.942
 20
108.678
 30
0.0
 11
175.43
 21
108.927
 31
0.0
  0
LINE
  8
0
 62
     0
 10
175.43
 20
108.927
 30
0.0
 11
175.817
 21
109.316
 31
0.0
  0
LINE
  8
0
 62
     0
 10
175.817
 20
109.316
 30
0.0
 11
176.066
 21
109.802
 31
0.0
  0
LINE
  8
0
 62
     0
 10
176.066
 20
109.802
 30
0.0
 11
176.15
 21
110.344
 31
0.0
  0
LINE
  8
0
 62
     0
 10
176.15
 20
110.344
 30
0.0
 11
176.066
 21
110.883
 31
0.0
  0
LINE
  8
0
 62
     0
 10
176.066
 20
110.883
 30
0.0
 11
175.817
 21
111.373
 31
0.0
  0
LINE
  8
0
 62
     0
 10
175.817
 20
111.373
 30
0.0
 11
175.43
 21
111.758
 31
0.0
  0
LINE
  8
0
 62
     0
 10
175.43
 20
111.758
 30
0.0
 11
174.942
 21
112.007
 31
0.0
  0
LINE
  8
0
 62
     0
 10
174.942
 20
112.007
 30
0.0
 11
174.4
 21
112.094
 31
0.0
  0
LINE
  8
0
 62
     0
 10
174.4
 20
112.094
 30
0.0
 11
173.86
 21
112.007
 31
0.0
  0
LINE
  8
0
 62
     0
 10
258.513
 20
112.007
 30
0.0
 11
258.025
 21
111.758
 31
0.0
  0
LINE
  8
0
 62
     0
 10
258.025
 20
111.758
 30
0.0
 11
257.639
 21
111.373
 31
0.0
  0
LINE
  8
0
 62
     0
 10
257.639
 20
111.373
 30
0.0
 11
257.39
 21
110.883
 31
0.0
  0
LINE
  8
0
 62
     0
 10
257.39
 20
110.883
 30
0.0
 11
257.304
 21
110.344
 31
0.0
  0
LINE
  8
0
 62
     0
 10
257.304
 20
110.344
 30
0.0
 11
257.39
 21
109.802
 31
0.0
  0
LINE
  8
0
 62
     0
 10
257.39
 20
109.802
 30
0.0
 11
257.639
 21
109.316
 31
0.0
  0
LINE
  8
0
 62
     0
 10
257.639
 20
109.316
 30
0.0
 11
258.025
 21
108.927
 31
0.0
  0
LINE
  8
0
 62
     0
 10
258.025
 20
108.927
 30
0.0
 11
258.513
 21
108.678
 31
0.0
  0
LINE
  8
0
 62
     0
 10
258.513
 20
108.678
 30
0.0
 11
259.055
 21
108.593
 31
0.0
  0
LINE
  8
0
 62
     0
 10
259.055
 20
108.593
 30
0.0
 11
259.595
 21
108.678
 31
0.0
  0
LINE
  8
0
 62
     0
 10
259.595
 20
108.678
 30
0.0
 11
260.083
 21
108.927
 31
0.0
  0
LINE
  8
0
 62
     0
 10
260.083
 20
108.927
 30
0.0
 11
260.47
 21
109.316
 31
0.0
  0
LINE
  8
0
 62
     0
 10
260.47
 20
109.316
 30
0.0
 11
260.719
 21
109.802
 31
0.0
  0
LINE
  8
0
 62
     0
 10
260.719
 20
109.802
 30
0.0
 11
260.805
 21
110.344
 31
0.0
  0
LINE
  8
0
 62
     0
 10
260.805
 20
110.344
 30
0.0
 11
260.719
 21
110.883
 31
0.0
  0
LINE
  8
0
 62
     0
 10
260.719
 20
110.883
 30
0.0
 11
260.47
 21
111.373
 31
0.0
  0
LINE
  8
0
 62
     0
 10
260.47
 20
111.373
 30
0.0
 11
260.083
 21
111.758
 31
0.0
  0
LINE
  8
0
 62
     0
 10
260.083
 20
111.758
 30
0.0
 11
259.595
 21
112.007
 31
0.0
  0
LINE
  8
0
 62
     0
 10
259.595
 20
112.007
 30
0.0
 11
259.055
 21
112.094
 31
0.0
  0
LINE
  8
0
 62
     0
 10
259.055
 20
112.094
 30
0.0
 11
258.513
 21
112.007
 31
0.0
  0
LINE
  8
0
 62
     0
 10
343.167
 20
112.007
 30
0.0
 11
342.678
 21
111.758
 31
0.0
  0
LINE
  8
0
 62
     0
 10
342.678
 20
111.758
 30
0.0
 11
342.292
 21
111.373
 31
0.0
  0
LINE
  8
0
 62
     0
 10
342.292
 20
111.373
 30
0.0
 11
342.044
 21
110.883
 31
0.0
  0
LINE
  8
0
 62
     0
 10
342.044
 20
110.883
 30
0.0
 11
341.957
 21
110.344
 31
0.0
  0
LINE
  8
0
 62
     0
 10
341.957
 20
110.344
 30
0.0
 11
342.044
 21
109.802
 31
0.0
  0
LINE
  8
0
 62
     0
 10
342.044
 20
109.802
 30
0.0
 11
342.292
 21
109.316
 31
0.0
  0
LINE
  8
0
 62
     0
 10
342.292
 20
109.316
 30
0.0
 11
342.678
 21
108.927
 31
0.0
  0
LINE
  8
0
 62
     0
 10
342.678
 20
108.927
 30
0.0
 11
343.167
 21
108.678
 31
0.0
  0
LINE
  8
0
 62
     0
 10
343.167
 20
108.678
 30
0.0
 11
343.708
 21
108.593
 31
0.0
  0
LINE
  8
0
 62
     0
 10
343.708
 20
108.593
 30
0.0
 11
344.249
 21
108.678
 31
0.0
  0
LINE
  8
0
 62
     0
 10
344.249
 20
108.678
 30
0.0
 11
344.737
 21
108.927
 31
0.0
  0
LINE
  8
0
 62
     0
 10
344.737
 20
108.927
 30
0.0
 11
345.124
 21
109.316
 31
0.0
  0
LINE
  8
0
 62
     0
 10
345.124
 20
109.316
 30
0.0
 11
345.372
 21
109.802
 31
0.0
  0
LINE
  8
0
 62
     0
 10
345.372
 20
109.802
 30
0.0
 11
345.458
 21
110.344
 31
0.0
  0
LINE
  8
0
 62
     0
 10
345.458
 20
110.344
 30
0.0
 11
345.372
 21
110.883
 31
0.0
  0
LINE
  8
0
 62
     0
 10
345.372
 20
110.883
 30
0.0
 11
345.124
 21
111.373
 31
0.0
  0
LINE
  8
0
 62
     0
 10
345.124
 20
111.373
 30
0.0
 11
344.737
 21
111.758
 31
0.0
  0
LINE
  8
0
 62
     0
 10
344.737
 20
111.758
 30
0.0
 11
344.249
 21
112.007
 31
0.0
  0
LINE
  8
0
 62
     0
 10
344.249
 20
112.007
 30
0.0
 11
343.708
 21
112.094
 31
0.0
  0
LINE
  8
0
 62
     0
 10
343.708
 20
112.094
 30
0.0
 11
343.167
 21
112.007
 31
0.0
  0
LINE
  8
0
 62
     0
 10
4.55443
 20
112.007
 30
0.0
 11
4.0652
 21
111.758
 31
0.0
  0
LINE
  8
0
 62
     0
 10
4.0652
 20
111.758
 30
0.0
 11
3.67937
 21
111.373
 31
0.0
  0
LINE
  8
0
 62
     0
 10
3.67937
 20
111.373
 30
0.0
 11
3.42994
 21
110.883
 31
0.0
  0
LINE
  8
0
 62
     0
 10
3.42994
 20
110.883
 30
0.0
 11
3.34312
 21
110.344
 31
0.0
  0
LINE
  8
0
 62
     0
 10
3.34312
 20
110.344
 30
0.0
 11
3.42994
 21
109.802
 31
0.0
  0
LINE
  8
0
 62
     0
 10
3.42994
 20
109.802
 30
0.0
 11
3.67937
 21
109.316
 31
0.0
  0
LINE
  8
0
 62
     0
 10
3.67937
 20
109.316
 30
0.0
 11
4.0652
 21
108.927
 31
0.0
  0
LINE
  8
0
 62
     0
 10
4.0652
 20
108.927
 30
0.0
 11
4.55443
 21
108.678
 31
0.0
  0
LINE
  8
0
 62
     0
 10
4.55443
 20
108.678
 30
0.0
 11
5.09323
 21
108.593
 31
0.0
  0
LINE
  8
0
 62
     0
 10
5.09323
 20
108.593
 30
0.0
 11
5.63481
 21
108.678
 31
0.0
  0
LINE
  8
0
 62
     0
 10
5.63481
 20
108.678
 30
0.0
 11
6.12263
 21
108.927
 31
0.0
  0
LINE
  8
0
 62
     0
 10
6.12263
 20
108.927
 30
0.0
 11
6.50984
 21
109.316
 31
0.0
  0
LINE
  8
0
 62
     0
 10
6.50984
 20
109.316
 30
0.0
 11
6.75929
 21
109.802
 31
0.0
  0
LINE
  8
0
 62
     0
 10
6.75929
 20
109.802
 30
0.0
 11
6.84332
 21
110.344
 31
0.0
  0
LINE
  8
0
 62
     0
 10
6.84332
 20
110.344
 30
0.0
 11
6.75929
 21
110.883
 31
0.0
  0
LINE
  8
0
 62
     0
 10
6.75929
 20
110.883
 30
0.0
 11
6.50984
 21
111.373
 31
0.0
  0
LINE
  8
0
 62
     0
 10
6.50984
 20
111.373
 30
0.0
 11
6.12263
 21
111.758
 31
0.0
  0
LINE
  8
0
 62
     0
 10
6.12263
 20
111.758
 30
0.0
 11
5.63481
 21
112.007
 31
0.0
  0
LINE
  8
0
 62
     0
 10
5.63481
 20
112.007
 30
0.0
 11
5.09323
 21
112.094
 31
0.0
  0
LINE
  8
0
 62
     0
 10
5.09323
 20
112.094
 30
0.0
 11
4.55443
 21
112.007
 31
0.0
  0
ENDSEC
  0
EOF
