  0
SECTION
  2
HEADER
  9
$ACADVER
  1
AC1009
  9
$EXTMIN
 10
0.0
 20
0.0
 30
0.0
  9
$EXTMAX
 10
1000.0
 20
1000.0
 30
0.0
  9
$FILLMODE
 70
 0
  9
$SPLFRAME
 70
 1
  0
ENDSEC
  0
SECTION
  2
TABLES
  0
TABLE
  2
LAYER
 70
1
  0
LAYER
  2
0
 70
     0
 62
     7
  6
CONTINUOUS
  0
ENDTAB
  0
ENDSEC
  0
SECTION
  2
ENTITIES
  0
LINE
  8
0
 62
     0
 10
343.708
 20
115.342
 30
0.0
 11
344.1
 21
115.328
 31
0.0
  0
LINE
  8
0
 62
     0
 10
344.1
 20
115.328
 30
0.0
 11
344.49
 21
115.282
 31
0.0
  0
LINE
  8
0
 62
     0
 10
344.49
 20
115.282
 30
0.0
 11
344.875
 21
115.204
 31
0.0
  0
LINE
  8
0
 62
     0
 10
344.875
 20
115.204
 30
0.0
 11
345.252
 21
115.098
 31
0.0
  0
LINE
  8
0
 62
     0
 10
345.252
 20
115.098
 30
0.0
 11
345.62
 21
114.961
 31
0.0
  0
LINE
  8
0
 62
     0
 10
345.62
 20
114.961
 30
0.0
 11
345.977
 21
114.799
 31
0.0
  0
LINE
  8
0
 62
     0
 10
345.977
 20
114.799
 30
0.0
 11
346.32
 21
114.607
 31
0.0
  0
LINE
  8
0
 62
     0
 10
346.32
 20
114.607
 30
0.0
 11
346.647
 21
114.388
 31
0.0
  0
LINE
  8
0
 62
     0
 10
346.647
 20
114.388
 30
0.0
 11
346.954
 21
114.146
 31
0.0
  0
LINE
  8
0
 62
     0
 10
346.954
 20
114.146
 30
0.0
 11
347.244
 21
113.878
 31
0.0
  0
LINE
  8
0
 62
     0
 10
347.244
 20
113.878
 30
0.0
 11
347.509
 21
113.592
 31
0.0
  0
LINE
  8
0
 62
     0
 10
347.509
 20
113.592
 30
0.0
 11
347.752
 21
113.283
 31
0.0
  0
LINE
  8
0
 62
     0
 10
347.752
 20
113.283
 30
0.0
 11
347.971
 21
112.955
 31
0.0
  0
LINE
  8
0
 62
     0
 10
347.971
 20
112.955
 30
0.0
 11
348.163
 21
112.612
 31
0.0
  0
LINE
  8
0
 62
     0
 10
348.163
 20
112.612
 30
0.0
 11
348.327
 21
112.256
 31
0.0
  0
LINE
  8
0
 62
     0
 10
348.327
 20
112.256
 30
0.0
 11
348.463
 21
111.888
 31
0.0
  0
LINE
  8
0
 62
     0
 10
348.463
 20
111.888
 30
0.0
 11
348.569
 21
111.51
 31
0.0
  0
LINE
  8
0
 62
     0
 10
348.569
 20
111.51
 30
0.0
 11
348.646
 21
111.125
 31
0.0
  0
LINE
  8
0
 62
     0
 10
348.646
 20
111.125
 30
0.0
 11
348.693
 21
110.735
 31
0.0
  0
LINE
  8
0
 62
     0
 10
348.693
 20
110.735
 30
0.0
 11
348.708
 21
110.344
 31
0.0
  0
LINE
  8
0
 62
     0
 10
348.708
 20
110.344
 30
0.0
 11
348.708
 21
5.09185
 31
0.0
  0
LINE
  8
0
 62
     0
 10
348.708
 20
5.09185
 30
0.0
 11
348.693
 21
4.70048
 31
0.0
  0
LINE
  8
0
 62
     0
 10
348.693
 20
4.70048
 30
0.0
 11
348.646
 21
4.30911
 31
0.0
  0
LINE
  8
0
 62
     0
 10
348.646
 20
4.30911
 30
0.0
 11
348.569
 21
3.92465
 31
0.0
  0
LINE
  8
0
 62
     0
 10
348.569
 20
3.92465
 30
0.0
 11
348.463
 21
3.5457
 31
0.0
  0
LINE
  8
0
 62
     0
 10
348.463
 20
3.5457
 30
0.0
 11
348.327
 21
3.17776
 31
0.0
  0
LINE
  8
0
 62
     0
 10
348.327
 20
3.17776
 30
0.0
 11
348.163
 21
2.82222
 31
0.0
  0
LINE
  8
0
 62
     0
 10
348.163
 20
2.82222
 30
0.0
 11
347.971
 21
2.48047
 31
0.0
  0
LINE
  8
0
 62
     0
 10
347.971
 20
2.48047
 30
0.0
 11
347.752
 21
2.15249
 31
0.0
  0
LINE
  8
0
 62
     0
 10
347.752
 20
2.15249
 30
0.0
 11
347.509
 21
1.84381
 31
0.0
  0
LINE
  8
0
 62
     0
 10
347.509
 20
1.84381
 30
0.0
 11
347.244
 21
1.55718
 31
0.0
  0
LINE
  8
0
 62
     0
 10
347.244
 20
1.55718
 30
0.0
 11
346.954
 21
1.28984
 31
0.0
  0
LINE
  8
0
 62
     0
 10
346.954
 20
1.28984
 30
0.0
 11
346.647
 21
1.04593
 31
0.0
  0
LINE
  8
0
 62
     0
 10
346.647
 20
1.04593
 30
0.0
 11
346.32
 21
0.828202
 31
0.0
  0
LINE
  8
0
 62
     0
 10
346.32
 20
0.828202
 30
0.0
 11
345.977
 21
0.636655
 31
0.0
  0
LINE
  8
0
 62
     0
 10
345.977
 20
0.636655
 30
0.0
 11
345.62
 21
0.472666
 31
0.0
  0
LINE
  8
0
 62
     0
 10
345.62
 20
0.472666
 30
0.0
 11
345.252
 21
0.336241
 31
0.0
  0
LINE
  8
0
 62
     0
 10
345.252
 20
0.336241
 30
0.0
 11
344.875
 21
0.23151
 31
0.0
  0
LINE
  8
0
 62
     0
 10
344.875
 20
0.23151
 30
0.0
 11
344.49
 21
0.152962
 31
0.0
  0
LINE
  8
0
 62
     0
 10
344.49
 20
0.152962
 30
0.0
 11
344.1
 21
0.107487
 31
0.0
  0
LINE
  8
0
 62
     0
 10
344.1
 20
0.107487
 30
0.0
 11
343.708
 21
0.0909507
 31
0.0
  0
LINE
  8
0
 62
     0
 10
343.708
 20
0.0909507
 30
0.0
 11
5.0946
 21
0.0923286
 31
0.0
  0
LINE
  8
0
 62
     0
 10
5.0946
 20
0.0923286
 30
0.0
 11
4.70186
 21
0.107487
 31
0.0
  0
LINE
  8
0
 62
     0
 10
4.70186
 20
0.107487
 30
0.0
 11
4.3119
 21
0.152962
 31
0.0
  0
LINE
  8
0
 62
     0
 10
4.3119
 20
0.152962
 30
0.0
 11
3.9274
 21
0.23151
 31
0.0
  0
LINE
  8
0
 62
     0
 10
3.9274
 20
0.23151
 30
0.0
 11
3.54845
 21
0.336241
 31
0.0
  0
LINE
  8
0
 62
     0
 10
3.54845
 20
0.336241
 30
0.0
 11
3.18051
 21
0.472666
 31
0.0
  0
LINE
  8
0
 62
     0
 10
3.18051
 20
0.472666
 30
0.0
 11
2.82498
 21
0.636655
 31
0.0
  0
LINE
  8
0
 62
     0
 10
2.82498
 20
0.636655
 30
0.0
 11
2.48185
 21
0.828202
 31
0.0
  0
LINE
  8
0
 62
     0
 10
2.48185
 20
0.828202
 30
0.0
 11
2.15525
 21
1.04593
 31
0.0
  0
LINE
  8
0
 62
     0
 10
2.15525
 20
1.04593
 30
0.0
 11
1.84657
 21
1.28984
 31
0.0
  0
LINE
  8
0
 62
     0
 10
1.84657
 20
1.28984
 30
0.0
 11
1.55856
 21
1.55718
 31
0.0
  0
LINE
  8
0
 62
     0
 10
1.55856
 20
1.55718
 30
0.0
 11
1.29122
 21
1.84381
 31
0.0
  0
LINE
  8
0
 62
     0
 10
1.29122
 20
1.84381
 30
0.0
 11
1.04869
 21
2.15249
 31
0.0
  0
LINE
  8
0
 62
     0
 10
1.04869
 20
2.15249
 30
0.0
 11
0.830957
 21
2.48047
 31
0.0
  0
LINE
  8
0
 62
     0
 10
0.830957
 20
2.48047
 30
0.0
 11
0.63941
 21
2.82222
 31
0.0
  0
LINE
  8
0
 62
     0
 10
0.63941
 20
2.82222
 30
0.0
 11
0.475424
 21
3.17776
 31
0.0
  0
LINE
  8
0
 62
     0
 10
0.475424
 20
3.17776
 30
0.0
 11
0.338998
 21
3.5457
 31
0.0
  0
LINE
  8
0
 62
     0
 10
0.338998
 20
3.5457
 30
0.0
 11
0.232888
 21
3.92465
 31
0.0
  0
LINE
  8
0
 62
     0
 10
0.232888
 20
3.92465
 30
0.0
 11
0.155718
 21
4.30911
 31
0.0
  0
LINE
  8
0
 62
     0
 10
0.155718
 20
4.30911
 30
0.0
 11
0.110243
 21
4.70048
 31
0.0
  0
LINE
  8
0
 62
     0
 10
0.110243
 20
4.70048
 30
0.0
 11
0.0937066
 21
5.09185
 31
0.0
  0
LINE
  8
0
 62
     0
 10
0.0937066
 20
5.09185
 30
0.0
 11
0.0950846
 21
110.344
 31
0.0
  0
LINE
  8
0
 62
     0
 10
0.0950846
 20
110.344
 30
0.0
 11
0.110243
 21
110.735
 31
0.0
  0
LINE
  8
0
 62
     0
 10
0.110243
 20
110.735
 30
0.0
 11
0.155718
 21
111.125
 31
0.0
  0
LINE
  8
0
 62
     0
 10
0.155718
 20
111.125
 30
0.0
 11
0.232888
 21
111.51
 31
0.0
  0
LINE
  8
0
 62
     0
 10
0.232888
 20
111.51
 30
0.0
 11
0.338998
 21
111.888
 31
0.0
  0
LINE
  8
0
 62
     0
 10
0.338998
 20
111.888
 30
0.0
 11
0.475424
 21
112.256
 31
0.0
  0
LINE
  8
0
 62
     0
 10
0.475424
 20
112.256
 30
0.0
 11
0.63941
 21
112.612
 31
0.0
  0
LINE
  8
0
 62
     0
 10
0.63941
 20
112.612
 30
0.0
 11
0.830957
 21
112.955
 31
0.0
  0
LINE
  8
0
 62
     0
 10
0.830957
 20
112.955
 30
0.0
 11
1.04869
 21
113.283
 31
0.0
  0
LINE
  8
0
 62
     0
 10
1.04869
 20
113.283
 30
0.0
 11
1.29122
 21
113.592
 31
0.0
  0
LINE
  8
0
 62
     0
 10
1.29122
 20
113.592
 30
0.0
 11
1.55856
 21
113.878
 31
0.0
  0
LINE
  8
0
 62
     0
 10
1.55856
 20
113.878
 30
0.0
 11
1.84657
 21
114.146
 31
0.0
  0
LINE
  8
0
 62
     0
 10
1.84657
 20
114.146
 30
0.0
 11
2.15525
 21
114.388
 31
0.0
  0
LINE
  8
0
 62
     0
 10
2.15525
 20
114.388
 30
0.0
 11
2.48185
 21
114.607
 31
0.0
  0
LINE
  8
0
 62
     0
 10
2.48185
 20
114.607
 30
0.0
 11
2.82498
 21
114.799
 31
0.0
  0
LINE
  8
0
 62
     0
 10
2.82498
 20
114.799
 30
0.0
 11
3.18051
 21
114.961
 31
0.0
  0
LINE
  8
0
 62
     0
 10
3.18051
 20
114.961
 30
0.0
 11
3.54845
 21
115.098
 31
0.0
  0
LINE
  8
0
 62
     0
 10
3.54845
 20
115.098
 30
0.0
 11
3.9274
 21
115.204
 31
0.0
  0
LINE
  8
0
 62
     0
 10
3.9274
 20
115.204
 30
0.0
 11
4.3119
 21
115.282
 31
0.0
  0
LINE
  8
0
 62
     0
 10
4.3119
 20
115.282
 30
0.0
 11
4.70186
 21
115.328
 31
0.0
  0
LINE
  8
0
 62
     0
 10
4.70186
 20
115.328
 30
0.0
 11
5.0946
 21
115.343
 31
0.0
  0
LINE
  8
0
 62
     0
 10
5.0946
 20
115.343
 30
0.0
 11
343.708
 21
115.342
 31
0.0
  0
LINE
  8
0
 62
     0
 10
343.167
 20
6.75792
 30
0.0
 11
342.678
 21
6.50847
 31
0.0
  0
LINE
  8
0
 62
     0
 10
342.678
 20
6.50847
 30
0.0
 11
342.292
 21
6.11988
 31
0.0
  0
LINE
  8
0
 62
     0
 10
342.292
 20
6.11988
 30
0.0
 11
342.044
 21
5.63203
 31
0.0
  0
LINE
  8
0
 62
     0
 10
342.044
 20
5.63203
 30
0.0
 11
341.957
 21
5.09185
 31
0.0
  0
LINE
  8
0
 62
     0
 10
341.957
 20
5.09185
 30
0.0
 11
342.044
 21
4.55306
 31
0.0
  0
LINE
  8
0
 62
     0
 10
342.044
 20
4.55306
 30
0.0
 11
342.292
 21
4.06245
 31
0.0
  0
LINE
  8
0
 62
     0
 10
342.292
 20
4.06245
 30
0.0
 11
342.678
 21
3.67661
 31
0.0
  0
LINE
  8
0
 62
     0
 10
342.678
 20
3.67661
 30
0.0
 11
343.167
 21
3.42718
 31
0.0
  0
LINE
  8
0
 62
     0
 10
343.167
 20
3.42718
 30
0.0
 11
343.708
 21
3.34174
 31
0.0
  0
LINE
  8
0
 62
     0
 10
343.708
 20
3.34174
 30
0.0
 11
344.249
 21
3.42718
 31
0.0
  0
LINE
  8
0
 62
     0
 10
344.249
 20
3.42718
 30
0.0
 11
344.737
 21
3.67661
 31
0.0
  0
LINE
  8
0
 62
     0
 10
344.737
 20
3.67661
 30
0.0
 11
345.124
 21
4.06245
 31
0.0
  0
LINE
  8
0
 62
     0
 10
345.124
 20
4.06245
 30
0.0
 11
345.372
 21
4.55306
 31
0.0
  0
LINE
  8
0
 62
     0
 10
345.372
 20
4.55306
 30
0.0
 11
345.458
 21
5.09185
 31
0.0
  0
LINE
  8
0
 62
     0
 10
345.458
 20
5.09185
 30
0.0
 11
345.372
 21
5.63203
 31
0.0
  0
LINE
  8
0
 62
     0
 10
345.372
 20
5.63203
 30
0.0
 11
345.124
 21
6.11988
 31
0.0
  0
LINE
  8
0
 62
     0
 10
345.124
 20
6.11988
 30
0.0
 11
344.737
 21
6.50847
 31
0.0
  0
LINE
  8
0
 62
     0
 10
344.737
 20
6.50847
 30
0.0
 11
344.249
 21
6.75792
 31
0.0
  0
LINE
  8
0
 62
     0
 10
344.249
 20
6.75792
 30
0.0
 11
343.708
 21
6.84195
 31
0.0
  0
LINE
  8
0
 62
     0
 10
343.708
 20
6.84195
 30
0.0
 11
343.167
 21
6.75792
 31
0.0
  0
LINE
  8
0
 62
     0
 10
258.513
 20
6.75792
 30
0.0
 11
258.025
 21
6.50847
 31
0.0
  0
LINE
  8
0
 62
     0
 10
258.025
 20
6.50847
 30
0.0
 11
257.639
 21
6.11988
 31
0.0
  0
LINE
  8
0
 62
     0
 10
257.639
 20
6.11988
 30
0.0
 11
257.39
 21
5.63203
 31
0.0
  0
LINE
  8
0
 62
     0
 10
257.39
 20
5.63203
 30
0.0
 11
257.304
 21
5.09185
 31
0.0
  0
LINE
  8
0
 62
     0
 10
257.304
 20
5.09185
 30
0.0
 11
257.39
 21
4.55306
 31
0.0
  0
LINE
  8
0
 62
     0
 10
257.39
 20
4.55306
 30
0.0
 11
257.639
 21
4.06245
 31
0.0
  0
LINE
  8
0
 62
     0
 10
257.639
 20
4.06245
 30
0.0
 11
258.025
 21
3.67661
 31
0.0
  0
LINE
  8
0
 62
     0
 10
258.025
 20
3.67661
 30
0.0
 11
258.513
 21
3.42718
 31
0.0
  0
LINE
  8
0
 62
     0
 10
258.513
 20
3.42718
 30
0.0
 11
259.055
 21
3.34174
 31
0.0
  0
LINE
  8
0
 62
     0
 10
259.055
 20
3.34174
 30
0.0
 11
259.595
 21
3.42718
 31
0.0
  0
LINE
  8
0
 62
     0
 10
259.595
 20
3.42718
 30
0.0
 11
260.083
 21
3.67661
 31
0.0
  0
LINE
  8
0
 62
     0
 10
260.083
 20
3.67661
 30
0.0
 11
260.47
 21
4.06245
 31
0.0
  0
LINE
  8
0
 62
     0
 10
260.47
 20
4.06245
 30
0.0
 11
260.719
 21
4.55306
 31
0.0
  0
LINE
  8
0
 62
     0
 10
260.719
 20
4.55306
 30
0.0
 11
260.805
 21
5.09185
 31
0.0
  0
LINE
  8
0
 62
     0
 10
260.805
 20
5.09185
 30
0.0
 11
260.719
 21
5.63203
 31
0.0
  0
LINE
  8
0
 62
     0
 10
260.719
 20
5.63203
 30
0.0
 11
260.47
 21
6.11988
 31
0.0
  0
LINE
  8
0
 62
     0
 10
260.47
 20
6.11988
 30
0.0
 11
260.083
 21
6.50847
 31
0.0
  0
LINE
  8
0
 62
     0
 10
260.083
 20
6.50847
 30
0.0
 11
259.595
 21
6.75792
 31
0.0
  0
LINE
  8
0
 62
     0
 10
259.595
 20
6.75792
 30
0.0
 11
259.055
 21
6.84195
 31
0.0
  0
LINE
  8
0
 62
     0
 10
259.055
 20
6.84195
 30
0.0
 11
258.513
 21
6.75792
 31
0.0
  0
LINE
  8
0
 62
     0
 10
173.86
 20
6.75792
 30
0.0
 11
173.372
 21
6.50847
 31
0.0
  0
LINE
  8
0
 62
     0
 10
173.372
 20
6.50847
 30
0.0
 11
172.985
 21
6.11988
 31
0.0
  0
LINE
  8
0
 62
     0
 10
172.985
 20
6.11988
 30
0.0
 11
172.737
 21
5.63203
 31
0.0
  0
LINE
  8
0
 62
     0
 10
172.737
 20
5.63203
 30
0.0
 11
172.65
 21
5.09185
 31
0.0
  0
LINE
  8
0
 62
     0
 10
172.65
 20
5.09185
 30
0.0
 11
172.737
 21
4.55306
 31
0.0
  0
LINE
  8
0
 62
     0
 10
172.737
 20
4.55306
 30
0.0
 11
172.985
 21
4.06245
 31
0.0
  0
LINE
  8
0
 62
     0
 10
172.985
 20
4.06245
 30
0.0
 11
173.372
 21
3.67661
 31
0.0
  0
LINE
  8
0
 62
     0
 10
173.372
 20
3.67661
 30
0.0
 11
173.86
 21
3.42718
 31
0.0
  0
LINE
  8
0
 62
     0
 10
173.86
 20
3.42718
 30
0.0
 11
174.4
 21
3.34174
 31
0.0
  0
LINE
  8
0
 62
     0
 10
174.4
 20
3.34174
 30
0.0
 11
174.942
 21
3.42718
 31
0.0
  0
LINE
  8
0
 62
     0
 10
174.942
 20
3.42718
 30
0.0
 11
175.43
 21
3.67661
 31
0.0
  0
LINE
  8
0
 62
     0
 10
175.43
 20
3.67661
 30
0.0
 11
175.817
 21
4.06245
 31
0.0
  0
LINE
  8
0
 62
     0
 10
175.817
 20
4.06245
 30
0.0
 11
176.066
 21
4.55306
 31
0.0
  0
LINE
  8
0
 62
     0
 10
176.066
 20
4.55306
 30
0.0
 11
176.15
 21
5.09185
 31
0.0
  0
LINE
  8
0
 62
     0
 10
176.15
 20
5.09185
 30
0.0
 11
176.066
 21
5.63203
 31
0.0
  0
LINE
  8
0
 62
     0
 10
176.066
 20
5.63203
 30
0.0
 11
175.817
 21
6.11988
 31
0.0
  0
LINE
  8
0
 62
     0
 10
175.817
 20
6.11988
 30
0.0
 11
175.43
 21
6.50847
 31
0.0
  0
LINE
  8
0
 62
     0
 10
175.43
 20
6.50847
 30
0.0
 11
174.942
 21
6.75792
 31
0.0
  0
LINE
  8
0
 62
     0
 10
174.942
 20
6.75792
 30
0.0
 11
174.4
 21
6.84195
 31
0.0
  0
LINE
  8
0
 62
     0
 10
174.4
 20
6.84195
 30
0.0
 11
173.86
 21
6.75792
 31
0.0
  0
LINE
  8
0
 62
     0
 10
89.2073
 20
6.75792
 30
0.0
 11
88.718
 21
6.50847
 31
0.0
  0
LINE
  8
0
 62
     0
 10
88.718
 20
6.50847
 30
0.0
 11
88.3324
 21
6.11988
 31
0.0
  0
LINE
  8
0
 62
     0
 10
88.3324
 20
6.11988
 30
0.0
 11
88.0844
 21
5.63203
 31
0.0
  0
LINE
  8
0
 62
     0
 10
88.0844
 20
5.63203
 30
0.0
 11
87.9972
 21
5.09185
 31
0.0
  0
LINE
  8
0
 62
     0
 10
87.9972
 20
5.09185
 30
0.0
 11
88.0844
 21
4.55306
 31
0.0
  0
LINE
  8
0
 62
     0
 10
88.0844
 20
4.55306
 30
0.0
 11
88.3324
 21
4.06245
 31
0.0
  0
LINE
  8
0
 62
     0
 10
88.3324
 20
4.06245
 30
0.0
 11
88.718
 21
3.67661
 31
0.0
  0
LINE
  8
0
 62
     0
 10
88.718
 20
3.67661
 30
0.0
 11
89.2073
 21
3.42718
 31
0.0
  0
LINE
  8
0
 62
     0
 10
89.2073
 20
3.42718
 30
0.0
 11
89.7474
 21
3.34174
 31
0.0
  0
LINE
  8
0
 62
     0
 10
89.7474
 20
3.34174
 30
0.0
 11
90.2892
 21
3.42718
 31
0.0
  0
LINE
  8
0
 62
     0
 10
90.2892
 20
3.42718
 30
0.0
 11
90.7754
 21
3.67661
 31
0.0
  0
LINE
  8
0
 62
     0
 10
90.7754
 20
3.67661
 30
0.0
 11
91.1641
 21
4.06245
 31
0.0
  0
LINE
  8
0
 62
     0
 10
91.1641
 20
4.06245
 30
0.0
 11
91.4121
 21
4.55306
 31
0.0
  0
LINE
  8
0
 62
     0
 10
91.4121
 20
4.55306
 30
0.0
 11
91.4975
 21
5.09185
 31
0.0
  0
LINE
  8
0
 62
     0
 10
91.4975
 20
5.09185
 30
0.0
 11
91.4121
 21
5.63203
 31
0.0
  0
LINE
  8
0
 62
     0
 10
91.4121
 20
5.63203
 30
0.0
 11
91.1641
 21
6.11988
 31
0.0
  0
LINE
  8
0
 62
     0
 10
91.1641
 20
6.11988
 30
0.0
 11
90.7754
 21
6.50847
 31
0.0
  0
LINE
  8
0
 62
     0
 10
90.7754
 20
6.50847
 30
0.0
 11
90.2892
 21
6.75792
 31
0.0
  0
LINE
  8
0
 62
     0
 10
90.2892
 20
6.75792
 30
0.0
 11
89.7474
 21
6.84195
 31
0.0
  0
LINE
  8
0
 62
     0
 10
89.7474
 20
6.84195
 30
0.0
 11
89.2073
 21
6.75792
 31
0.0
  0
LINE
  8
0
 62
     0
 10
4.55443
 20
6.75792
 30
0.0
 11
4.0652
 21
6.50847
 31
0.0
  0
LINE
  8
0
 62
     0
 10
4.0652
 20
6.50847
 30
0.0
 11
3.67937
 21
6.11988
 31
0.0
  0
LINE
  8
0
 62
     0
 10
3.67937
 20
6.11988
 30
0.0
 11
3.42994
 21
5.63203
 31
0.0
  0
LINE
  8
0
 62
     0
 10
3.42994
 20
5.63203
 30
0.0
 11
3.34312
 21
5.09185
 31
0.0
  0
LINE
  8
0
 62
     0
 10
3.34312
 20
5.09185
 30
0.0
 11
3.42994
 21
4.55306
 31
0.0
  0
LINE
  8
0
 62
     0
 10
3.42994
 20
4.55306
 30
0.0
 11
3.67937
 21
4.06245
 31
0.0
  0
LINE
  8
0
 62
     0
 10
3.67937
 20
4.06245
 30
0.0
 11
4.0652
 21
3.67661
 31
0.0
  0
LINE
  8
0
 62
     0
 10
4.0652
 20
3.67661
 30
0.0
 11
4.55443
 21
3.42718
 31
0.0
  0
LINE
  8
0
 62
     0
 10
4.55443
 20
3.42718
 30
0.0
 11
5.09323
 21
3.34174
 31
0.0
  0
LINE
  8
0
 62
     0
 10
5.09323
 20
3.34174
 30
0.0
 11
5.63481
 21
3.42718
 31
0.0
  0
LINE
  8
0
 62
     0
 10
5.63481
 20
3.42718
 30
0.0
 11
6.12263
 21
3.67661
 31
0.0
  0
LINE
  8
0
 62
     0
 10
6.12263
 20
3.67661
 30
0.0
 11
6.50984
 21
4.06245
 31
0.0
  0
LINE
  8
0
 62
     0
 10
6.50984
 20
4.06245
 30
0.0
 11
6.75929
 21
4.55306
 31
0.0
  0
LINE
  8
0
 62
     0
 10
6.75929
 20
4.55306
 30
0.0
 11
6.84332
 21
5.09185
 31
0.0
  0
LINE
  8
0
 62
     0
 10
6.84332
 20
5.09185
 30
0.0
 11
6.75929
 21
5.63203
 31
0.0
  0
LINE
  8
0
 62
     0
 10
6.75929
 20
5.63203
 30
0.0
 11
6.50984
 21
6.11988
 31
0.0
  0
LINE
  8
0
 62
     0
 10
6.50984
 20
6.11988
 30
0.0
 11
6.12263
 21
6.50847
 31
0.0
  0
LINE
  8
0
 62
     0
 10
6.12263
 20
6.50847
 30
0.0
 11
5.63481
 21
6.75792
 31
0.0
  0
LINE
  8
0
 62
     0
 10
5.63481
 20
6.75792
 30
0.0
 11
5.09323
 21
6.84195
 31
0.0
  0
LINE
  8
0
 62
     0
 10
5.09323
 20
6.84195
 30
0.0
 11
4.55443
 21
6.75792
 31
0.0
  0
LINE
  8
0
 62
     0
 10
89.2073
 20
112.007
 30
0.0
 11
88.718
 21
111.758
 31
0.0
  0
LINE
  8
0
 62
     0
 10
88.718
 20
111.758
 30
0.0
 11
88.3324
 21
111.373
 31
0.0
  0
LINE
  8
0
 62
     0
 10
88.3324
 20
111.373
 30
0.0
 11
88.0844
 21
110.883
 31
0.0
  0
LINE
  8
0
 62
     0
 10
88.0844
 20
110.883
 30
0.0
 11
87.9972
 21
110.344
 31
0.0
  0
LINE
  8
0
 62
     0
 10
87.9972
 20
110.344
 30
0.0
 11
88.0844
 21
109.802
 31
0.0
  0
LINE
  8
0
 62
     0
 10
88.0844
 20
109.802
 30
0.0
 11
88.3324
 21
109.316
 31
0.0
  0
LINE
  8
0
 62
     0
 10
88.3324
 20
109.316
 30
0.0
 11
88.718
 21
108.927
 31
0.0
  0
LINE
  8
0
 62
     0
 10
88.718
 20
108.927
 30
0.0
 11
89.2073
 21
108.678
 31
0.0
  0
LINE
  8
0
 62
     0
 10
89.2073
 20
108.678
 30
0.0
 11
89.7474
 21
108.593
 31
0.0
  0
LINE
  8
0
 62
     0
 10
89.7474
 20
108.593
 30
0.0
 11
90.2892
 21
108.678
 31
0.0
  0
LINE
  8
0
 62
     0
 10
90.2892
 20
108.678
 30
0.0
 11
90.7754
 21
108.927
 31
0.0
  0
LINE
  8
0
 62
     0
 10
90.7754
 20
108.927
 30
0.0
 11
91.1641
 21
109.316
 31
0.0
  0
LINE
  8
0
 62
     0
 10
91.1641
 20
109.316
 30
0.0
 11
91.4121
 21
109.802
 31
0.0
  0
LINE
  8
0
 62
     0
 10
91.4121
 20
109.802
 30
0.0
 11
91.4975
 21
110.344
 31
0.0
  0
LINE
  8
0
 62
     0
 10
91.4975
 20
110.344
 30
0.0
 11
91.4121
 21
110.883
 31
0.0
  0
LINE
  8
0
 62
     0
 10
91.4121
 20
110.883
 30
0.0
 11
91.1641
 21
111.373
 31
0.0
  0
LINE
  8
0
 62
     0
 10
91.1641
 20
111.373
 30
0.0
 11
90.7754
 21
111.758
 31
0.0
  0
LINE
  8
0
 62
     0
 10
90.7754
 20
111.758
 30
0.0
 11
90.2892
 21
112.007
 31
0.0
  0
LINE
  8
0
 62
     0
 10
90.2892
 20
112.007
 30
0.0
 11
89.7474
 21
112.094
 31
0.0
  0
LINE
  8
0
 62
     0
 10
89.7474
 20
112.094
 30
0.0
 11
89.2073
 21
112.007
 31
0.0
  0
LINE
  8
0
 62
     0
 10
173.86
 20
112.007
 30
0.0
 11
173.372
 21
111.758
 31
0.0
  0
LINE
  8
0
 62
     0
 10
173.372
 20
111.758
 30
0.0
 11
172.985
 21
111.373
 31
0.0
  0
LINE
  8
0
 62
     0
 10
172.985
 20
111.373
 30
0.0
 11
172.737
 21
110.883
 31
0.0
  0
LINE
  8
0
 62
     0
 10
172.737
 20
110.883
 30
0.0
 11
172.65
 21
110.344
 31
0.0
  0
LINE
  8
0
 62
     0
 10
172.65
 20
110.344
 30
0.0
 11
172.737
 21
109.802
 31
0.0
  0
LINE
  8
0
 62
     0
 10
172.737
 20
109.802
 30
0.0
 11
172.985
 21
109.316
 31
0.0
  0
LINE
  8
0
 62
     0
 10
172.985
 20
109.316
 30
0.0
 11
173.372
 21
108.927
 31
0.0
  0
LINE
  8
0
 62
     0
 10
173.372
 20
108.927
 30
0.0
 11
173.86
 21
108.678
 31
0.0
  0
LINE
  8
0
 62
     0
 10
173.86
 20
108.678
 30
0.0
 11
174.4
 21
108.593
 31
0.0
  0
LINE
  8
0
 62
     0
 10
174.4
 20
108.593
 30
0.0
 11
174.942
 21
108.678
 31
0.0
  0
LINE
  8
0
 62
     0
 10
174.942
 20
108.678
 30
0.0
 11
175.43
 21
108.927
 31
0.0
  0
LINE
  8
0
 62
     0
 10
175.43
 20
108.927
 30
0.0
 11
175.817
 21
109.316
 31
0.0
  0
LINE
  8
0
 62
     0
 10
175.817
 20
109.316
 30
0.0
 11
176.066
 21
109.802
 31
0.0
  0
LINE
  8
0
 62
     0
 10
176.066
 20
109.802
 30
0.0
 11
176.15
 21
110.344
 31
0.0
  0
LINE
  8
0
 62
     0
 10
176.15
 20
110.344
 30
0.0
 11
176.066
 21
110.883
 31
0.0
  0
LINE
  8
0
 62
     0
 10
176.066
 20
110.883
 30
0.0
 11
175.817
 21
111.373
 31
0.0
  0
LINE
  8
0
 62
     0
 10
175.817
 20
111.373
 30
0.0
 11
175.43
 21
111.758
 31
0.0
  0
LINE
  8
0
 62
     0
 10
175.43
 20
111.758
 30
0.0
 11
174.942
 21
112.007
 31
0.0
  0
LINE
  8
0
 62
     0
 10
174.942
 20
112.007
 30
0.0
 11
174.4
 21
112.094
 31
0.0
  0
LINE
  8
0
 62
     0
 10
174.4
 20
112.094
 30
0.0
 11
173.86
 21
112.007
 31
0.0
  0
LINE
  8
0
 62
     0
 10
258.513
 20
112.007
 30
0.0
 11
258.025
 21
111.758
 31
0.0
  0
LINE
  8
0
 62
     0
 10
258.025
 20
111.758
 30
0.0
 11
257.639
 21
111.373
 31
0.0
  0
LINE
  8
0
 62
     0
 10
257.639
 20
111.373
 30
0.0
 11
257.39
 21
110.883
 31
0.0
  0
LINE
  8
0
 62
     0
 10
257.39
 20
110.883
 30
0.0
 11
257.304
 21
110.344
 31
0.0
  0
LINE
  8
0
 62
     0
 10
257.304
 20
110.344
 30
0.0
 11
257.39
 21
109.802
 31
0.0
  0
LINE
  8
0
 62
     0
 10
257.39
 20
109.802
 30
0.0
 11
257.639
 21
109.316
 31
0.0
  0
LINE
  8
0
 62
     0
 10
257.639
 20
109.316
 30
0.0
 11
258.025
 21
108.927
 31
0.0
  0
LINE
  8
0
 62
     0
 10
258.025
 20
108.927
 30
0.0
 11
258.513
 21
108.678
 31
0.0
  0
LINE
  8
0
 62
     0
 10
258.513
 20
108.678
 30
0.0
 11
259.055
 21
108.593
 31
0.0
  0
LINE
  8
0
 62
     0
 10
259.055
 20
108.593
 30
0.0
 11
259.595
 21
108.678
 31
0.0
  0
LINE
  8
0
 62
     0
 10
259.595
 20
108.678
 30
0.0
 11
260.083
 21
108.927
 31
0.0
  0
LINE
  8
0
 62
     0
 10
260.083
 20
108.927
 30
0.0
 11
260.47
 21
109.316
 31
0.0
  0
LINE
  8
0
 62
     0
 10
260.47
 20
109.316
 30
0.0
 11
260.719
 21
109.802
 31
0.0
  0
LINE
  8
0
 62
     0
 10
260.719
 20
109.802
 30
0.0
 11
260.805
 21
110.344
 31
0.0
  0
LINE
  8
0
 62
     0
 10
260.805
 20
110.344
 30
0.0
 11
260.719
 21
110.883
 31
0.0
  0
LINE
  8
0
 62
     0
 10
260.719
 20
110.883
 30
0.0
 11
260.47
 21
111.373
 31
0.0
  0
LINE
  8
0
 62
     0
 10
260.47
 20
111.373
 30
0.0
 11
260.083
 21
111.758
 31
0.0
  0
LINE
  8
0
 62
     0
 10
260.083
 20
111.758
 30
0.0
 11
259.595
 21
112.007
 31
0.0
  0
LINE
  8
0
 62
     0
 10
259.595
 20
112.007
 30
0.0
 11
259.055
 21
112.094
 31
0.0
  0
LINE
  8
0
 62
     0
 10
259.055
 20
112.094
 30
0.0
 11
258.513
 21
112.007
 31
0.0
  0
LINE
  8
0
 62
     0
 10
343.167
 20
112.007
 30
0.0
 11
342.678
 21
111.758
 31
0.0
  0
LINE
  8
0
 62
     0
 10
342.678
 20
111.758
 30
0.0
 11
342.292
 21
111.373
 31
0.0
  0
LINE
  8
0
 62
     0
 10
342.292
 20
111.373
 30
0.0
 11
342.044
 21
110.883
 31
0.0
  0
LINE
  8
0
 62
     0
 10
342.044
 20
110.883
 30
0.0
 11
341.957
 21
110.344
 31
0.0
  0
LINE
  8
0
 62
     0
 10
341.957
 20
110.344
 30
0.0
 11
342.044
 21
109.802
 31
0.0
  0
LINE
  8
0
 62
     0
 10
342.044
 20
109.802
 30
0.0
 11
342.292
 21
109.316
 31
0.0
  0
LINE
  8
0
 62
     0
 10
342.292
 20
109.316
 30
0.0
 11
342.678
 21
108.927
 31
0.0
  0
LINE
  8
0
 62
     0
 10
342.678
 20
108.927
 30
0.0
 11
343.167
 21
108.678
 31
0.0
  0
LINE
  8
0
 62
     0
 10
343.167
 20
108.678
 30
0.0
 11
343.708
 21
108.593
 31
0.0
  0
LINE
  8
0
 62
     0
 10
343.708
 20
108.593
 30
0.0
 11
344.249
 21
108.678
 31
0.0
  0
LINE
  8
0
 62
     0
 10
344.249
 20
108.678
 30
0.0
 11
344.737
 21
108.927
 31
0.0
  0
LINE
  8
0
 62
     0
 10
344.737
 20
108.927
 30
0.0
 11
345.124
 21
109.316
 31
0.0
  0
LINE
  8
0
 62
     0
 10
345.124
 20
109.316
 30
0.0
 11
345.372
 21
109.802
 31
0.0
  0
LINE
  8
0
 62
     0
 10
345.372
 20
109.802
 30
0.0
 11
345.458
 21
110.344
 31
0.0
  0
LINE
  8
0
 62
     0
 10
345.458
 20
110.344
 30
0.0
 11
345.372
 21
110.883
 31
0.0
  0
LINE
  8
0
 62
     0
 10
345.372
 20
110.883
 30
0.0
 11
345.124
 21
111.373
 31
0.0
  0
LINE
  8
0
 62
     0
 10
345.124
 20
111.373
 30
0.0
 11
344.737
 21
111.758
 31
0.0
  0
LINE
  8
0
 62
     0
 10
344.737
 20
111.758
 30
0.0
 11
344.249
 21
112.007
 31
0.0
  0
LINE
  8
0
 62
     0
 10
344.249
 20
112.007
 30
0.0
 11
343.708
 21
112.094
 31
0.0
  0
LINE
  8
0
 62
     0
 10
343.708
 20
112.094
 30
0.0
 11
343.167
 21
112.007
 31
0.0
  0
LINE
  8
0
 62
     0
 10
4.55443
 20
112.007
 30
0.0
 11
4.0652
 21
111.758
 31
0.0
  0
LINE
  8
0
 62
     0
 10
4.0652
 20
111.758
 30
0.0
 11
3.67937
 21
111.373
 31
0.0
  0
LINE
  8
0
 62
     0
 10
3.67937
 20
111.373
 30
0.0
 11
3.42994
 21
110.883
 31
0.0
  0
LINE
  8
0
 62
     0
 10
3.42994
 20
110.883
 30
0.0
 11
3.34312
 21
110.344
 31
0.0
  0
LINE
  8
0
 62
     0
 10
3.34312
 20
110.344
 30
0.0
 11
3.42994
 21
109.802
 31
0.0
  0
LINE
  8
0
 62
     0
 10
3.42994
 20
109.802
 30
0.0
 11
3.67937
 21
109.316
 31
0.0
  0
LINE
  8
0
 62
     0
 10
3.67937
 20
109.316
 30
0.0
 11
4.0652
 21
108.927
 31
0.0
  0
LINE
  8
0
 62
     0
 10
4.0652
 20
108.927
 30
0.0
 11
4.55443
 21
108.678
 31
0.0
  0
LINE
  8
0
 62
     0
 10
4.55443
 20
108.678
 30
0.0
 11
5.09323
 21
108.593
 31
0.0
  0
LINE
  8
0
 62
     0
 10
5.09323
 20
108.593
 30
0.0
 11
5.63481
 21
108.678
 31
0.0
  0
LINE
  8
0
 62
     0
 10
5.63481
 20
108.678
 30
0.0
 11
6.12263
 21
108.927
 31
0.0
  0
LINE
  8
0
 62
     0
 10
6.12263
 20
108.927
 30
0.0
 11
6.50984
 21
109.316
 31
0.0
  0
LINE
  8
0
 62
     0
 10
6.50984
 20
109.316
 30
0.0
 11
6.75929
 21
109.802
 31
0.0
  0
LINE
  8
0
 62
     0
 10
6.75929
 20
109.802
 30
0.0
 11
6.84332
 21
110.344
 31
0.0
  0
LINE
  8
0
 62
     0
 10
6.84332
 20
110.344
 30
0.0
 11
6.75929
 21
110.883
 31
0.0
  0
LINE
  8
0
 62
     0
 10
6.75929
 20
110.883
 30
0.0
 11
6.50984
 21
111.373
 31
0.0
  0
LINE
  8
0
 62
     0
 10
6.50984
 20
111.373
 30
0.0
 11
6.12263
 21
111.758
 31
0.0
  0
LINE
  8
0
 62
     0
 10
6.12263
 20
111.758
 30
0.0
 11
5.63481
 21
112.007
 31
0.0
  0
LINE
  8
0
 62
     0
 10
5.63481
 20
112.007
 30
0.0
 11
5.09323
 21
112.094
 31
0.0
  0
LINE
  8
0
 62
     0
 10
5.09323
 20
112.094
 30
0.0
 11
4.55443
 21
112.007
 31
0.0
  0
ENDSEC
  0
EOF
